Cifra Club

Freight Train

Elizabeth Cotten

Cifra: Principal (violão e guitarra)
Selo Cifra Club: esta cifra foi revisada para atender aos critérios oficiais da nossa Equipe de Qualidade.
tom: C
Elizabeth Cotton
send any corrections to *
Work out the timin for yourselves!


E|--3-----0-----|--------------|--------3--1--|--------------------|-----|
B|--------------|--3-----1-----|--0-----------|-----------0--------|-----|
G|--------------|--------------|--------------|-----0-----------0--|-----|
D|-----2-----2--|-----2-----2--|-----0-----0--|--0-----------0-----|-----|
A|--------------|--------------|--------------|--------------------|-----|
E|--3-----3-----|--3-----3-----|--3-----3-----|---------3----------|-----|

E|-----3-----------1--------|-----0--------------------|--------3--0--|-----|
B|--------------------------|-----------------3--------|--1-----------|-----|
G|-----------0-----------0--|-----------0-----------0--|--------------|-----|
D|--------0-----------0-----|--------3-----------3-----|-----2-----2--|-----|
A|--------------------------|--------------------------|--------------|-----|
E|--3-----------3-----------|--3-----------3-----------|--3-----3-----|-----|

E|----------------|--0---------------------|--0----------------|-----|
B|----------------|-------------3----------|-------------3-----|-----|
G|-----------0h1--|--------0h1--------0h1--|--------0h1--------|-----|
D|--2-----2-------|-----2----------2-------|-----2----------2--|-----|
A|----------------|------------------------|-------------------|-----|
E|-----3-------0--|----------0----------0--|----------0--------|-----|

E|--------------|--------------------|--0----------------------|-------------------|
B|--1-----------|--1-----------3-----|--------------1----------|--1----------0-----|
G|-----------2--|--------2-----------|--------0-----------0h2--|--------0h2--------|
D|-----3-----3--|-----3-----------3--|-----2-----------2-------|-----0-------------|
A|--------------|--------------------|-------------------------|-------------------|
E|--1-----1-----|--1--------1--------|--3--------3----------3--|----------3--------|

E|-----------------------|--------------|--0----------------|--------0-----------|-----|
B|--1-----------1--------|--------------|-------------0-----|--3-----------3-----|-----|
G|--------0-----------0--|--------------|--------0h1--------|-----------------2--|-----|
D|-----2-----------2-----|-----2-----2--|-----2----------2--|-----2--------------|-----|
A|--3--------------------|--3-----------|-------------------|--------------------|-----|
E|-----------3-----------|--------3-----|--0-------0--------|--0--------0--------|-----|

E|--------------|-------------------|--0----------------------|-------------------|-----|
B|--1-----------|--1--------1h3-----|--------------1----------|--1----------0-----|-----|
G|-----------2--|--------2----------|--------0-----------0h2--|--------0h2--------|-----|
D|-----3-----3--|-----3----------3--|-----2-----------2-------|-----0----------3--|-----|
A|--------------|-------------------|-------------------------|-------------------|-----|
E|--1-----1-----|--1----------------|--3--------3----------3--|----------3--------|-----|

E|--------------------|--------------|-----------------|-----|
B|--1-----------1-----|--------------|--1-----3--4-----|-----|
G|--------0-----------|--------------|-----------------|-----|
D|-----2-----------2--|-----2-----2--|-----3--------3--|-----|
A|--------------------|--3-----------|-----------------|-----|
E|--3--------3--------|--------3-----|--1--------------|-----|

E|--0----------------------|-------------------|--------------|--0--|
B|--------------1----------|--1----------0-----|--1-----------|--1--|
G|--------0-----------0h2--|--------0h2--------|--------------|--0--|
D|-----2-----------2-------|-----0----------3--|--------------|--2--|
A|-------------------------|-------------------|--3--0--------|--3--|
E|--3--------3----------3--|----------3--------|--------3--0--|--0--|
Outros vídeos desta música
    1.730 exibições
      • ½ Tom
      • A
      • Bb
      • B
      • C
      • Db
      • D
      • Eb
      • E
      • F
      • F#
      • G
      • Ab
    • Adicionar à lista

    Afinação da cifra

    Afinador online

      0 comentários

      Ver todos os comentários

      Entre para o Cifra Club PRO

      Tenha acesso a benefícios exclusivos no App e no Site

      • Chega de anúncios

      • Badges exclusivas

      • Mais recursos no app do Afinador

      • Atendimento Prioritário

      • Aumente seu limite de lista

      • Ajude a produzir mais conteúdo

      Cifra Club Pro

      Aproveite o Cifra Club com benefícios exclusivos e sem anúncios
      Cifra Club Pro
      Aproveite o Cifra Club com benefícios exclusivos e sem anúncios
      OK