Cifra Club

Aquest cony de temps

Els Pets

Cifra: Principal (violão e guitarra)
Selo Cifra Club: esta cifra foi revisada para atender aos critérios oficiais da nossa Equipe de Qualidade.
tom: Ab
 Intro

 Riff 1
E|------|

E|--------------------------------------|
B|--------------------------------------|
G|--5h6-6----6-----6---6----5-6---------|
D|--------8-----8----8---8--------------| x2
A|--------------------------------------|
E|--------------------------------------|


 G#       Fm
 Trenca'm a bocins
 C#       D#          G#       Fm     C#     D#
  i endevina quina peça em rovella els ossos,      [Riff2]
 G#      Fm      C#      D#         G#     Fm C# D#
  posa'm al revés a veure si així vaig bé.         [Riff2]
 G#       Fm
 Seu al meu costat,
 C#        D#            G#               Fm     C#     D#
  torna'm A tranquil·litzar Abm els teus llavis dolços,   (Riff2)
 G#       Fm       C#         D#        G#   Fm C# D#
  digue'm el perquè d'aquest dia tan esquerp.         [Riff2]


 Riff 2
E|------|

E|--------------------------------------|
B|--------------------------------------|
G|----6-----6-------6-------------------|
D|------6------8------10----6-----------|
A|--------------------------------------|
E|--------------------------------------|


       C#                                  G#
 La finestra, en caure el vespre, s'ha tornat en un mirall
           Fm         C#         G#
 i el que veig no menteix i m'espanta.
       C#                         G#
 Si almenys aquesta pluja em servís per netejar
           Bbm
 tots els núvols llargs i negres
             D#
 que ara es van filtrant per les parets,


 G#  Fm   C#          D#
 Potser passo massa temps a casa,
 G#    Fm    C#              D#
 pot ser però el carrer és tan fosc,
  G#   Fm   C#                 D#
 deu ser que aquest cony de temps se'm fica al cos.


 G# Fm C# D# x2

 Riff 1
E|------|

E|--------------------------------------|
B|--------------------------------------|
G|--5h6-6----6-----6---6----5-6---------|
D|--------8-----8----8---8--------------| x2
A|--------------------------------------|
E|--------------------------------------|


 G#    Fm
 Ara parla fort
 C#       D#                G#        Fm     C#   D#
  per tapar les veus que dintre meu em maltracten,  [Riff2]
 G#    Fm       C#        D#         G#    Fm C# D#
 o potser millor calla i sent la meva por.          [Riff2]


       C#                                   G#
 La finestra, en caure el vespre, s'ha convertit en mirall
           Fm           C#            G#
 i el que veig és tan lleig que m'espanta.
       C#                       G#
 Si només aquesta pluja em servís per netejar
           Bbm
 tots els núvols llargs i negres
             D#
 que ara es van filtrant per les parets.


 G#  Fm   C#          D#
 Potser passo massa temps a casa,
 G#    Fm    C#              D#
 pot ser però el carrer és tan fosc,
  G#   Fm   C#                 D#              G# Fm C# D# x 4
 deu ser que aquest cony de temps se'm fica al cos.


 Solo
E|----|

E|-------------------------------------------------------------|
B|-------------------------------------------------------------|
G|---5-h-6-s-8-s10--11-10--8-s-13-s-6-s-8-s-10-11-10--8-8-s-6--|
D|-------------------------------------------------------------|
A|-------------------------------------------------------------|
E|-------------------------------------------------------------|


       C#                                   G#
 La finestra, en caure el vespre, s'ha convertit en mirall
           Fm           C#            G#
 i el que veig és tan lleig que m'espanta.
       C#                       G#
 Si almenys aquesta pluja em servís per netejar
           Bbm
 tots els núvols llargs i negres
             D#
 que ara es van filtrant per les parets.


 G#  Fm   C#          D#
 Potser passo massa temps a casa,
 G#    Fm    C#              D#
 pot ser però el carrer és tan fosc,
 G#   Fm   C#                 D#                   G# Fm
 deu ser que aquest cony de temps se'm fica al cos.


 C#                 D#                 G# Fm
 Aquest cony de temps se'm fica al cos.

 C#           (pausa)                           D#
 Aquest cony de temps, aquest cony de temps se'm ficaaaaaa.

 G#  Fm  C#  D#            Gm Fm C# D#
 Nanananananananananananana...



 Acords
E|------|
Outros vídeos desta música
    15 exibições
      • ½ Tom
      • A
      • Bb
      • B
      • C
      • Db
      • D
      • Eb
      • E
      • F
      • F#
      • G
      • Ab
    • Adicionar à lista

    Afinação da cifra

    Afinador online

      0 comentários

      Ver todos os comentários

      Entre para o Cifra Club PRO

      Tenha acesso a benefícios exclusivos no App e no Site

      • Chega de anúncios

      • Badges exclusivas

      • Mais recursos no app do Afinador

      • Atendimento Prioritário

      • Aumente seu limite de lista

      • Ajude a produzir mais conteúdo

      Cifra Club Pro

      Aproveite o Cifra Club com benefícios exclusivos e sem anúncios
      Cifra Club Pro
      Aproveite o Cifra Club com benefícios exclusivos e sem anúncios
      Ops (: Contenido disponible sólo en portugués.
      OK