Cifra Club

Bona nit

Els Pets

Cifra: Principal (violão e guitarra)
Selo Cifra Club: esta cifra foi revisada para atender aos critérios oficiais da nossa Equipe de Qualidade.
tom: D
E|----2--5--2------2--5--2------0--3--0------0--3--2--0--|
B|-3------------2------------0---------------------------|
G|----------------------------------------2--------------|
D|-------------------------------------------------------|
A|-------------------------------------------------------|
E|-------------------------------------------------------|

E|----2--5--2------2--5--2------0--3--0------0--3--2--0--|
B|-3------------2------------0---------------------------|
G|----------------------------------------2--------------|
D|-------------------------------------------------------|
A|-------------------------------------------------------|
E|-------------------------------------------------------|



E|-5--2--5--5--2--3--5--3--2--0----------|
B|-------------------------------2--3--5-|
G|---------------------------------------|
D|---------------------------------------|
A|---------------------------------------|
E|---------------------------------------|

E|-2--2--5--5--2--3--5--3--2--0----------|
B|-------------------------------2--3--5-|
G|---------------------------------------|
D|---------------------------------------|
A|---------------------------------------|
E|---------------------------------------|

Vine aquí
Sé que estàs cansada, els ulls s'et fan petits
Deixa'm abraçar-te tendrament i calla
Que es molt tard i arribat l'hora de dormir

E|----2--5--2------2--5--2------0--3--0------0--3--2--0--|
B|-3------------2------------0---------------------------|
G|----------------------------------------2--------------Posa| el cap a la meva falda
D|-------------------------------------------------------|
A|-------------------------------------------------------|
E|-------------------------------------------------------|

E|----2--5--2------2--5--2------0--3--0------0--3--2--0--|
B|-3------------2------------0---------------------------|
G|----------------------------------------2--------------| i deix la meva màespolsar els
D|-------------------------------------------------------| fantasmes
A|-------------------------------------------------------|
E|-------------------------------------------------------|

E|----2--5--2------2--5--2------0--3--0------0--3--2--0--|
B|-3------------2------------0---------------------------|
G|----------------------------------------2--------------| que t'amoïnen i t'espantentanca els
D|-------------------------------------------------------| ulls que jo et vigilo des d'aquí.
A|-------------------------------------------------------|
E|-------------------------------------------------------|

Dorm tranquil·la i diguem bona nit
Deix que et porti en braços fins al llit
Jeu ben a la vora, saps que no estàs sola
Mentre et dic a cau d'orella bona nit

E|-5--2--5--5--2--3--5--3--2--0----------|
B|-------------------------------2--3--5-|
G|---------------------------------------|
D|---------------------------------------|
A|---------------------------------------|
E|---------------------------------------|

E|-2--2--5--5--2--3--5--3--2--0----------|
B|-------------------------------2--3--5-|
G|---------------------------------------|
D|---------------------------------------|
A|---------------------------------------|
E|---------------------------------------|

E|----2--5--2------2--5--2------0--3--0------0--3--2--0--|
B|-3------------2------------0---------------------------|
G|----------------------------------------2--------------| Pel balcó la Lluna t'esguarda
D|-------------------------------------------------------| i sé que et
A|-------------------------------------------------------|
E|-------------------------------------------------------|

E|----2--5--2------2--5--2------0--3--0------0--3--2--0--|
B|-3------------2------------0---------------------------|
G|----------------------------------------2--------------| fa un petó,
D|-------------------------------------------------------| res no té importància
A|-------------------------------------------------------|
E|-------------------------------------------------------|

E|----2--5--2------2--5--2------0--3--0------0--3--2--0--|
B|-3------------2------------0---------------------------|
G|----------------------------------------2--------------| fins demà a trenc d'alba
D|-------------------------------------------------------| quan de sopte t'acaroni
A|-------------------------------------------------------| la claror.
E|-------------------------------------------------------|

Dorm tranquil·la i diguem bona nit
Deix que et porti en braços fins al llit
Jeu ben a la vora, saps que no estàs sola
Mentre et dic a cau d'orella bona nit
Molt bona nit

E|-5--2--5--5--2--3--5--3--2--0----------|
B|-------------------------------2--3--5-|
G|---------------------------------------|
D|---------------------------------------|
A|---------------------------------------|
E|---------------------------------------|

E|-2--2--5--5--2--3--5--3--2--0----------|
B|-------------------------------2--3--5-|
G|---------------------------------------|
D|---------------------------------------|
A|---------------------------------------|
E|---------------------------------------|
Outros vídeos desta música
    522 exibições
      • ½ Tom
      • A
      • Bb
      • B
      • C
      • Db
      • D
      • Eb
      • E
      • F
      • F#
      • G
      • Ab
    • Adicionar à lista

    Afinação da cifra

    Afinador online

      0 comentários

      Ver todos os comentários

      Entre para o Cifra Club PRO

      Tenha acesso a benefícios exclusivos no App e no Site

      • Chega de anúncios

      • Badges exclusivas

      • Mais recursos no app do Afinador

      • Atendimento Prioritário

      • Aumente seu limite de lista

      • Ajude a produzir mais conteúdo

      Cifra Club Pro

      Aproveite o Cifra Club com benefícios exclusivos e sem anúncios
      Cifra Club Pro
      Aproveite o Cifra Club com benefícios exclusivos e sem anúncios
      Ops (: Contenido disponible sólo en portugués.
      OK