Cifra Club

Zoião

Emicida

Cifra: Principal (violão e guitarra)
Tom: A
Guitarra:

(esse riff se repete a musica toda)

E|-5------5-----5-------5-----------------------------|
B|---6------6-----6---6-------------------------------|
G|-----7------7-----7---------------------------------| (3X)
D|----------------------------------------------------|
A|----------------------------------------------------|
E|----------------------------------------------------|

E|-7------7-----7-------7-----------------------------|
B|---6------6-----6---6-------------------------------|
G|-----7------7-----7---------------------------------| (1X)
D|----------------------------------------------------|
A|----------------------------------------------------|
E|----------------------------------------------------|

Baixo:

E|----------------------------------------------------|
B|----------------------------------------------------|
G|----------------------------------------------------|
D|----------------------------------------------------|
A|-4-4/16-16-11----4-4/16-16-11-----4-4/16-16-11------|
E|----------------------------------------------------|

E|----------------------------------------------------|
B|----------------------------------------------------|
G|----------------------------------------------------|
D|----------------------------------------------------|
A|-4-4/11-16------------------------------------------|
E|----------------------------------------------------|
exibições 10.956
Acordes para:
    Composição: Emicida Colaboração e revisão:
    • victor
    • Lucas Assis

    0 comentários

    mostrar mais comentários

    Conseguiu tocar?

    1 tocaram 0 ainda não

    Grave um vídeo tocando Zoião e mande pra gente!

    00:00 / 00:00
    outros vídeos desta música
    repetir qualidade Automático
    Outros vídeos desta música
    00:00 / 00:00
    Automático
    OK