Cifra Club

Aprenda

In my tears

Emigrate

Cifra: Principal (violão e guitarra)
Já pensou em usar uma coleção de roupas do Cifra Club? Responda as perguntas abaixo e nos ajude nessa missão! →
tom: C
Drop C

Intro:

D|-------5------|
A|-----5---5----|
F|--------------|
C|--------------| x2
G|---5----------|
C|--------------|

D|-------5------|
A|-----5---5----|
F|--------------|
C|--------------| x2
G|---4----------|
C|--------------|

D|-------5------|
A|-----5---5----|
F|--------------|
C|--------------| x2
G|---3----------|
C|--------------|

D|-------5------|
A|-----5---5----|
F|--------------|
C|--------------| x2
G|---2----------|
C|--------------|

Verse

D|-------5------|
A|-----5---5----|
F|--------------|
C|--------------| x2
G|---5----------|
C|--------------|

D|-------5------|
A|-----5---5----|
F|--------------|
C|--------------| x2
G|---4----------|
C|--------------|

D|-------5------|
A|-----5---5----|
F|--------------|
C|--------------| x2
G|---3----------|
C|--------------|

D|-------5------------------|
A|-----5---5--4~------------|
F|--------------------------|
C|----------------0-3--0-3--|
G|---2------------0-3--0-3--|
C|----------------0-3--0-3--|

First Break:

D|------------------------------------------------------------------|
A|------------------------------------------------------------------|
F|------------------------------------------------------------------|
C|---12---12---12-12-12-12-12---12---11---11---11-11-11-11-11---11--|
G|---12---12---12-12-12-12-12---12---11---11---11-11-11-11-11---11--|
C|---12---12---12-12-12-12-12---12---11---11---11-11-11-11-11---11--|

D|------------------------------------------------------------------|
A|------------------------------------------------------------------|
F|------------------------------------------------------------------|
C|---10---10---10-10-10-10-10---10---9---9---9-9-9-9-9---9--0-3--0-3|
G|---10---10---10-10-10-10-10---10---9---9---9-9-9-9-9---9--0-3--0-3|
C|---10---10---10-10-10-10-10---10---9---9---9-9-9-9-9---9--0-3--0-3|


Chorus:

D|------------------------------------------------------------------|
A|------------------------------------------------------------------|
F|------------------------------------------------------------------|
C|--12-0-0-12-0-0-12-0-0-12-0-0-12-0-12-0-10-8-8-10-8-8-10-8-8------|
G|--12-0-0-12-0-0-12-0-0-12-0-0-12-0-12-0-10-8-8-10-8-8-10-8-8------|
C|--12-0-0-12-0-0-12-0-0-12-0-0-12-0-12-0-10-8-8-10-8-8-10-8-8------|

D|------------------------------------------------------------------|
A|------------------------------------------------------------------|
F|------------------------------------------------------------------|
C|--7-7-7-7-9-7-7-7------3-3-3-3-3-3-3-3----------------------------|
G|--7-7-7-7-9-7-7-7--or--3-3-3-3-3-3-3-3----------------------------|
C|--7-7-7-7-9-7-7-7------3-3-3-3-3-3-3-3----------------------------|


Solo:

x2:

D|--17--16----------------------------------------------------------------|
A|----------18~--17--15--17-------------------18~-17~-15-17~--------------|
F|--------------------------16b18r16-14~-/7-----------------14~-----------|
C|-------------------------------------------------------------14b15r14-12|
G|------------------------------------------------------------------------|
C|------------------------------------------------------------------------|

Rythm ---> First Break


Variation of the last chorus:

D|------------------------------------------------------------------|
A|------------------------------------------------------------------|
F|------------------------------------------------------------------|
C|---10-8-8-10-8-8-10-8-8-7-7-7-7-9-7-7-7---------------------------| x3
G|---10-8-8-10-8-8-10-8-8-7-7-7-7-9-7-7-7---------------------------|
C|---10-8-8-10-8-8-10-8-8-7-7-7-7-9-7-7-7---------------------------|
Composição de Richard Z. Kruspe
Colaboração e revisão:
  • raisa
152 exibições
    • ½ Tom
    • A
    • Bb
    • B
    • C
    • Db
    • D
    • Eb
    • E
    • F
    • F#
    • G
    • Ab
  • Adicionar à lista

    0 comentários

    Ver todos os comentários

    Conseguiu tocar?

    1 Tocaram 0 Ainda não

    Grave um vídeo tocando In my tears e nos envie!

    00:00 / 00:00
    Outros vídeos desta música
    Repetir Qualidade Automático
    Outros vídeos desta música
    00:00 / 00:00
    Automático

    Cifra Club Pro

    Aproveite o Cifra Club com benefícios exclusivos e sem anúncios
    Cifra Club Pro
    Aproveite o Cifra Club com benefícios exclusivos e sem anúncios
    OK