Cifra Club

Decrystallizing Reason

Emperor

Cifra: Principal (violão e guitarra)
Selo Cifra Club: esta cifra foi revisada para atender aos critérios oficiais da nossa Equipe de Qualidade.
tom: E
=================================================================================================
Album: IX Equilibrium

Tabbed by Chris Rezendes (*)

Tuning: Standard

Notation Key
v: vibrato
t: tremolo bar
^: bend
.: palm mute
~: trill
p: pull-off
h: hammer-on
x: ghost note
/: slide up
\: slide down

=================================================================================================

Intro 
Gtr. 1 x4
e|--------------------------------------|
B|--------------------------------------|
G|--------------------------------------|
D|--6-3-2----7-7/9-9----9/10-10-10\9-9--|
A|--6-3-2----5-5/7-7----7/8---8--8\7-7--|
E|--4-1-0-------------------------------|

Gtr. 2 x2 (starts after Gtr. 1 plays intro twice)
e|-----------------------------------|
B|-----------------------------------|
G|-----------------------------------|
D|-----------4-4/6-6----6/7-7-7\6-6--|
A|-----------------------------------|
E|-----------------------------------|

Fig. 1 
Gtr. 1 x4
e|-------------------------------------------------------------------|
B|-------------------------------------------------------------------|
G|-------------------------------------------------------------------|
D|--6-3-2----------7/9-9-9----------9/10-10-10----10/12-12-12--------|
A|--6-3-2----------5/7-7-777777777--7/8---8--8888--8/10-10-10101010--|
E|--4-1-0-00000000---------------------------------------------------|

Gtr. 2 x2 (starts after Gtr. 1 plays Fig. 1 twice)
e|----------------------------------------------------------|
B|----------------------------------------------------------|
G|----------------------------------------------------------|
D|-----------------4/6-6-666666666--6/7-7-7777--7/9-9-9999--|
A|----------------------------------------------------------|
E|----------------------------------------------------------|

Fig. 2 x2
e|------------------|--------------------|-----------------|-----------------------|
B|------------------|--------------------|-----------------|-----------------------|
G|------------------|--------------------|-----------------|-----------------------|
D|--------------4/--|------------10--10--|-------------4/--|------------4/5-5-5/7--|
A|--------------2/--|-------------8---8--|-------------2/--|------------2/3-3-3/5--|
E|--00000000000-----|--000000000----0----|--0000000000-----|--000000000------------|
    ...........        .........    .       ..........        .........

Fig. 3 x4
e|-------------|---------------|---------------------|
B|-------------|---------------|---------------------|
G|-------------|---------------|---------------------|
D|--------9-9--|-------10--10--|--------9-9-8-8-8-8--|
A|--------7-7--|--------8---8--|--------7-7-6-6-6-6--|
E|--0-0-0--0---|--0-0-0--------|--0-0-0--0---0-------|
    . . .  .      . . .            . . .  .   .

Repeat Fig. 2 x2
Repeat Fig. 3 x4

Riff 1 x1
e|-------------------------------|-------------------------------|
B|-------------------------------|--------------------------222--|
G|----------------------000-000--|------------------000-333------|
D|--333-222-222-222-333----------|--333-222-222-222--------------|
A|-------------------------------|-------------------------------|
E|-------------------------------|-------------------------------|

e|-------------------------------|-----------------------------------------------|
B|-------------------------------|--------------------------222-111--------------|
G|----------------------000-000--|------------------000-333----------------------|
D|--333-222-222-222-333----------|--333-222-222-222-----------------444-111------|
A|-------------------------------|------------------------------------------222--|
E|-------------------------------|-----------------------------------------------|

Riff 2 x2
e|-------------------------------|--------------------------111--|
B|--------------333---------444--|--------------222-333-555------|
G|------000-333-----000----------|------222-333------------------|
D|--222-----------------222------|--222--------------------------|
A|-------------------------------|-------------------------------|
E|-------------------------------|-------------------------------|

Repeat Riff 1 x1
Repeat Riff 2 x2
Repeat Riff 1 x1

Riff 3 x4
e|-----------------------------------------------------------------------------------------|
B|-----------------------------------------------------------------------------------------|
G|---------------6~5--------------6~5------------------------------------------------------|
D|--444444444444-----444444444444-----444444444444-666666666666-777777777777-999999999999--|
A|-----------------------------------------------------------------------------------------|
E|-----------------------------------------------------------------------------------------|

Riff 4 x4
e|----------------------------------------------------------------|
B|----------------------------------------------------------------|
G|----------------------------------------------------------------|
D|--22222-44444-55555-44444-------22222-44444-55555-444444444444--|
A|--------------------------55555---------------------------------|
E|----------------------------------------------------------------|

Repeat Riff 3 x2

Riff 5 x8 (the keyboard is playing this, but it can be arranged on a guitar like this)
e|-----------------------------------------------------------------|
B|-----------------------------------------------------------------|
G|------------------------------------------8-6--9-7--10-8--11-11--|
D|-----------------------------------------------------------------|
A|-----------------------------------------------------------------|
E|-----------------------------------------------------------------|

Riff 6 x2  (guitar 1 is playing this underneath what the keyboard is playing above)
e|-----------------------------------------------------------------|
B|-----------------------------------------------------------------|
G|-----------------------------------------------------------------|
D|-----------------------------------------------------------------|
A|-----------------------------------------------------------------|
E|----22222222222222222222222222222222222222222222222222222222222--|

e|-----------------------------------------------------------------|
B|-----------------------------------------------------------------|
G|-----------------------------------------------------------------|
D|-----------------------------------------------------------------|
A|-----------------------------------------------------------------|
E|----22222222222222222222222222222222222222222222222222222222222--|

e|-----------------------------------------------------------------|
B|-----------------------------------------------------------------|
G|-----------------------------------------------------------------|
D|-----------------------------------------------------------------|
A|-----------------------------------------------------------------|
E|----55555555555555555555555555555555555555555555555555555555555--|

e|-----------------------------------------------------------------|
B|-----------------------------------------------------------------|
G|-----------------------------------------------------------------|
D|-----------------------------------------------------------------|
A|-----------------------------------------------------------------|
E|----22222222222222222222222222222222222222222222222222222222222--|

Fig. 4 x2   (guitar 2 is playing this underneath the keyboard's riff)
e|-----------------------------------------------------------------|
B|-----------------------------------------------------------------|
G|-----------------------------------------------------------------|
D|-----------------------------------------------------------------|
A|--4--------------------------------------------------------------|
E|--2-2-2-2-2-2-2-2-2-2-2-2-2-2-2-2-2-2-2-2-2-2-2-2-2-2-2-2-2-2-2--|

e|-----------------------------------------------------------------|
B|-----------------------------------------------------------------|
G|-----------------------------------------------------------------|
D|-----------------------------------------------------------------|
A|--4--------------------------------------------------------------|
E|--2-2-2-2-2-2-2-2-2-2-2-2-2-2-2-2-2-2-2-2-2-2-2-2-2-2-2-2-2-2-2--|

e|-----------------------------------------------------------------|
B|-----------------------------------------------------------------|
G|-----------------------------------------------------------------|
D|-----------------------------------------------------------------|
A|--7--------------------------------------------------------------|
E|--5-5-5-5-5-5-5-5-5-5-5-5-5-5-5-5-5-5-5-5-5-5-5-5-5-5-5-5-5-5-5--|

e|-----------------------------------------------------------------|
B|-----------------------------------------------------------------|
G|-----------------------------------------------------------------|
D|-----------------------------------------------------------------|
A|--4--------------------------------------------------------------|
E|--2-2-2-2-2-2-2-2-2-2-2-2-2-2-2-2-2-2-2-2-2-2-2-2-2-2-2-2-2-2-2--|

Riff 7 x1
e|--------------------------|
B|--------------------------|
G|--------------------------|
D|--4------6------7------9--|
A|--------------------------|
E|--------------------------|

Repeat Riff 5 x8, Riff 6 x2, and Fig. 4 x2 simultaneously (not by yourself, of course ;-)
Repeat Riff 7 x1
Repeat Riff 5 x12 , Riff 6 x3 , and Fig. 4 x3 simultaneously, and eventually, fade out
Outros vídeos desta música
    308 exibições
      • ½ Tom
      • A
      • Bb
      • B
      • C
      • Db
      • D
      • Eb
      • E
      • F
      • F#
      • G
      • Ab
    • Adicionar à lista

    Afinação da cifra

    Afinador online

      0 comentários

      Ver todos os comentários

      Conseguiu tocar?

      0Tocaram0Ainda não

      Grave um vídeo tocando Decrystallizing Reason e nos envie!

      Toque também

      1. Imagem do artista MayhemFreezing Moon Mayhem
      2. Imagem do artista DarkthroneTransilvanian Hunger Darkthrone
      3. Imagem do artista ImmortalTyrants Immortal
      4. Imagem do artista SatyriconKing Satyricon

      Entre para o Cifra Club PRO

      Tenha acesso a benefícios exclusivos no App e no Site

      • Chega de anúncios

      • Badges exclusivas

      • Mais recursos no app do Afinador

      • Atendimento Prioritário

      • Aumente seu limite de lista

      • Ajude a produzir mais conteúdo

      Cifra Club Pro

      Aproveite o Cifra Club com benefícios exclusivos e sem anúncios
      Cifra Club Pro
      Aproveite o Cifra Club com benefícios exclusivos e sem anúncios
      Ops (: Contenido disponible sólo en portugués.
      OK