Cifra Club

Tu Carcel

Enanitos Verdes

Cifra: Principal
exibições 54.742
Tom: D
E|--0/2--2--0-----------0--2--2-----0---0-------------------0--0--|
B|-------------3----3--3---------3---------3--2----2--2--3---------|
G|----------------------------------------------------------------------|
D|----------------------------------------------------------------------|
A|----------------------------------------------------------------------|
E|----------------------------------------------------------------------|
                                 
E|---------------------------------------------------------------------|
B|--2--3----3--2--0----0--0--0--0--2--3--2--3h5--5-----------|
G|--------------------------------------------------------------------|  (2x)
D|--------------------------------------------------------------------|
A|--------------------------------------------------------------------|
E|--------------------------------------------------------------------|

D                                   A
te vas amor, si así lo quieres que puedo yo hacer
                  Bm          G                         A
tu vanidad no te deja entender, que en la pobreza se sabe querer
D                                A
quiero llorar, y me destroza que pienses así
                     Bm       G
y mas que ahora me quede sin ti
                    A
me duele lo que tu vas a sufrir
D
pero recuerda nadie es perfecto
   A
y tu lo veraz
                    Bm        G
mas de mil cosas mejores tendrás
             A
pero cariño sincero jamas
     D
vete olvidando, de eso que hoy dejas
    A                                Bm         G
y que cambiaras, por la aventura que tu ya veraz
                  A
sera tu cárcel y nunca saldrás

E|--0/2--2--0-----------0--2--2-----0---0-------------------0--0--|
B|-------------3----3--3---------3---------3--2----2--2--3---------|
G|----------------------------------------------------------------------|
D|----------------------------------------------------------------------|
A|----------------------------------------------------------------------|
E|---------------------------------------------------------------------|
                                 
E|----------------------------------------------------------------------|
B|--2--3----3--2--0----0--0--0--0--2--3--2--3h5--5------------|
G|---------------------------------------------------------------------|
D|---------------------------------------------------------------------|
A|---------------------------------------------------------------------|
E|---------------------------------------------------------------------|
D                                A
quiero llorar, y me destroza que pienses así
                     Bm        G
y mas que ahora me quede sin ti
                    A
me duele lo que tu vas a sufrir
D
pero recuerda nadies perfecto
   A
y tu lo veraz
                    Bm         G
mas de mil cosas mejores tendrás
             A
pero cariño sincero jamas
     D
vete olvidando, de eso que hoy dejas
    A                                Bm         G
y que cambiaras, por la aventura que tu ya veraz
                  A
sera tu cárcel y nunca saldrás

D
pero recuerda nadies perfecto
   A
y tu lo veraz
                    Bm          G
mas de mil cosas mejores tendrás
             A
pero cariño sincero jamas
     D
vete olvidando, de eso que hoy dejas
    A                                Bm         G
y que cambiaras, por la aventura que tu ya veraz
                  A
sera tu cárcel y nunca saldrás


E|--0/2--2--0-----------0--2--2-----0---0-------------------0--0--|
B|-------------3----3--3---------3---------3--2----2--2--3---------|
G|----------------------------------------------------------------------|
D|----------------------------------------------------------------------|
A|----------------------------------------------------------------------|
E|----------------------------------------------------------------------|
                                 
E|-----------------------------------------------------------------------|
B|--2--3----3--2--0----0--0--0--0--2--3--2--3h5--5-------------|
G|----------------------------------------------------------------------|
D|----------------------------------------------------------------------|
A|----------------------------------------------------------------------|
E|----------------------------------------------------------------------|
Acordes para:

    0 comentários

      mostrar mais comentários

      Conseguiu tocar?

      0tocaram0ainda não

      Grave um vídeo tocando Tu Carcel e mande pra gente!

      00:00 / 00:00
      outros vídeos desta música
      repetirqualidadeautomática
      Outro vídeos desta música
        00:00 / 00:00
        automática
        OK