Cifra Club

Guantánamo

Engenheiros do Hawaii

Cifra: Principal
exibições 119.673
Tom: C
(intro 2x)  Am G F G

Am             G          F    G
Quem foi que disse "te quero"?
Am       G           F     G
Qual era mesmo a canção?
Am       G        F        G
Quem viu a cor do dinheiro?
Am     G          F
Qual a melhor tradução?
Am       G         F       G
Quem foi ao Rio de Janeiro?
Am       G       F   GG
Qual era a intenção?
Am        G      F       G
Qual foi o dia e a hora?
Am         G    F
Quem foi embora...adeus
Dm
Me tira daqui (não adianta gritar)
G
Me ajuda a fugir  (ninguém vai escutar)
Am     G     F       Dm     C        G
Não aguento mais... eu não sei a resposta
Am     G     F       Dm     C        G
Não aguento mais... eu não sei a resposta

(solo da gaita)
E|-10/12-10-8-10-8------8-|-10/12-10-8-10-12-8--|
B|-----------------8-10---|---------------------|
G|------------------------|---------------------|
D|------------------------|---------------------|
A|------------------------|---------------------|
E|------------------------|---------------------|

Am          G       F    G
Quem sabe o que vem primeiro?
Am         G        F    G
Quem sabe o que vem depois?
Am       G         F     G
Quem cabe no mundo inteiro?
Am        G         F    G
Quem mais além de nós dois?
Am        G      F      G
Quem chama ao telefone?
Am          G     F    G
Por que não bate na porta?
Am        G      F     G
Que chama arde teu nome?
Am         G        F
Será que alguém se importa?
Dm
Me tira daqui (nao adianta gritar)
G
Me ajuda a fugir (ninguem vai escutar)
Am     G      F     Dm     C       G
Não aguento mais...eu não sei a resposta
Am     G      F     Dm     C       G
Não aguento mais...eu não sei a resposta


(solo 2x)  Am G F Dm C G


E|----5/12--12--15--10--12--8------------10--12--10--9-----------|
B|----------------------------12--14-----------------------------|
G|-------------------------------------------------------------- |
D|---------------------------------------------------------------|
A|---------------------------------------------------------------|
E|-------------------------------------------------------------- |

E|--12b--12b--12b--12b--15--10--12--8-----------8--10--8--7------|
B|--------------------------   --------10--12--------------------|
G|---------------------------------------------------------------|
D|---------------------------------------------------------------|
A|---------------------------------------------------------------|
E|---------------------------------------------------------------|


Am        G        F    G
Qual é a droga que salva?
Am       G    F        G
Qual é a dose letal?
Am       G            F     G
Quem quer saber tudo isso?
Am       G         F
Será que aguenta a pressao?
Dm       C        G       Dm     C      G
Eu não sei a resposta...eu não sei a resposta
Am      G     F      Dm      C        G
Não aguento mais...eu não sei a resposta
Am      G     F      Dm      C       G
Não aguento mais...eu não sei a resposta.


(Solo Final)

E|-10/12-10-8-10-8-----8---|
B|-----------------8-10----|
G|-------------------------|
D|-------------------------|
A|-------------------------|
E|-------------------------|

0 comentários

    mostrar mais comentários

    Conseguiu tocar?

    36tocaram0ainda não

    Grave um vídeo tocando Guantánamo e mande pra gente!

    00:00 / 00:00
    outros vídeos desta música
    repetirqualidadeautomática
    Outro vídeos desta música
      00:00 / 00:00
      automática
      OK