Cifra Club

Fatal Design

Entwine

Cifra: Principal (violão e guitarra)
Selo Cifra Club: esta cifra foi revisada para atender aos critérios oficiais da nossa Equipe de Qualidade.
tom: E
               E  E  E  E  E  E  E  E     E  E  E  E  E  E  E  E   
E||-------||E|---------------|------------|E|---------------|-----------|
B||-------||E|---------------|------------|E|---------------|-----------|
G||-------||*E|---------------|-----------|E|---------------|-----------|
D||-------||*--5--5--5--5--5--5--5--5--|--5--5--5--5--5--5--5--5--|
A||-------||---5--5--5--5--5--5--5--5--|--5--5--5--5--5--5--5--5--|
D||-------||---5--5--5--5--5--5--5--5--|--5--5--5--5--5--5--5--5--|


  E  E  E  E  E  E  E  E     E  E  E  E  E  E  E  E     
E|E|---------------|-----------|E|---------------|------------| |
B|E|---------------|-----------|E|---------------|------------| |
G|E|---------------|-----------|--5--5--5--7--7--7--8--8--*| |
D|--1--1--1--1--1--1--1--1--|--x--x--x--x--x--x--x--x--*| |
A|--1--1--1--1--1--1--1--1--|--3--3--3--5--5--5--6--6---| |
E|--1--1--1--1--1--1--1--1--|E|---------------|------------| |

   E  E  E  E  E  E  E  E       E  E  E  E  E  E  E  E   
E|E|---------------|-------------| |E|---------------|-----------|
B|E|---------------|-------------| |E|---------------|-----------|
*E|---------------|-----------*||E|---------------|-----------|
*--5--5--x--5--5--5--x--5--*||--1--1--x--1--1--1--x--1--|
E|---5--5--x--5--5--5--x--5---| |--1--1--x--1--1--1--x--1--|
B|---5--5--x--5--5--5--x--5---| |--1--1--x--1--1--1--x--1--|

  E  E  E  E  Q    Q         E  E  E  E  E  E  E  E     
E|E|---------------|---------| |E|---------------|-------------||
B|E|---------------|---------| |E|---------------|-------------||
G|E|---------------|---------| |*E|---------------|-----------*||
D|--1--1--x--1--1----3----| |*--5--5--x--5--5--5--x--5--*||
A|--1--1--x--1--1----3----| |---5--5--x--5--5--5--x--5---||
E|--1--1--x--1--1----3----| |---5--5--x--5--5--5--x--5---||

  E  E  E  E  E  E  E  E     E  E  E  E  Q    Q     
E|E|---------------|-----------|E|---------------|---------|
B|E|---------------|-----------|E|---------------|---------|
G|E|---------------|-----------|E|---------------|---------|
D|--1--1--x--1--1--1--x--1--|--1--1--x--1--1----3----|
A|--1--1--x--1--1--1--x--1--|--1--1--x--1--1----3----|
E|--1--1--x--1--1--1--x--1--|--1--1--x--1--1----3----|

    PM PM    PM PM PM    PM      PM PM    PM PM PM    PM  
    E  E  E  E  E  E  E  E       E  E  E  E  E  E  E  E   
E|E|---------------|-------------| |E|---------------|-----------|
B|E|---------------|-------------| |E|---------------|-----------|
G|*E|---------------|-----------*| |E|---------------|-----------|
D|*--5--5--x--5--5--5--x--5--*| |--1--1--x--1--1--1--x--1--|
A|---5--5--x--5--5--5--x--5---| |--1--1--x--1--1--1--x--1--|
E|---5--5--x--5--5--5--x--5---| |--1--1--x--1--1--1--x--1--|


  PM PM                       PM PM    PM PM PM    PM    
  E  E  E  E  E  E  Q         E  E  E  E  E  E  E  E     
E|E|---------------|----------| |E|---------------|-------------||
B|E|---------------|----------| |E|---------------|-------------||
G|E|---------------|----------| |*E|---------------|-----------*||
D|--1--1--x--1--1--1--3----| |*--5--5--x--5--5--5--x--5--*||
A|--1--1--x--1--1--1--3----| |---5--5--x--5--5--5--x--5---||
E|--1--1--x--1--1--1--3----| |---5--5--x--5--5--5--x--5---||


  PM PM    PM PM PM    PM    PM PM                   
  E  E  E  E  E  E  E  E     E  E  E  E  E  E  Q     
E|E|---------------|-----------|E|---------------|----------|
B|E|---------------|-----------|E|---------------|----------|
G|E|---------------|-----------|E|---------------|----------|
D|--1--1--x--1--1--1--x--1--|--1--1--x--1--1--1--3----|
A|--1--1--x--1--1--1--x--1--|--1--1--x--1--1--1--3----|
E|--1--1--x--1--1--1--x--1--|--1--1--x--1--1--1--3----|

    PM PM    PM PM PM    PM      PM PM    PM PM PM    PM  
    E  E  E  E  E  E  E  E       E  E  E  E  E  E  E  E   
E|E|---------------|-------------| |E|---------------|-----------|
B|E|---------------|-------------| |E|---------------|-----------|
G|*E|---------------|-----------*| |E|---------------|-----------|
D|*--5--5--x--5--5--5--x--5--*| |--1--1--x--1--1--1--x--1--|
A|---5--5--x--5--5--5--x--5---| |--1--1--x--1--1--1--x--1--|
E|---5--5--x--5--5--5--x--5---| |--1--1--x--1--1--1--x--1--|


  PM PM                       PM PM    PM PM PM    PM    
  E  E  E  E  E  E  Q         E  E  E  E  E  E  E  E     
E|E|---------------|----------| |E|---------------|-------------||
B|E|---------------|----------| |E|---------------|-------------||
G|E|---------------|----------| |*E|---------------|-----------*||
D|--1--1--x--1--1--1--3----| |*--5--5--x--5--5--5--x--5--*||
A|--1--1--x--1--1--1--3----| |---5--5--x--5--5--5--x--5---||
E|--1--1--x--1--1--1--3----| |---5--5--x--5--5--5--x--5---||

  PM PM    PM PM                                      
  E  E  E  E  E  E  E  E     E  E  E  E  E  E  E  E   
E|E|---------------|-----------|E|---------------|-----------|
B|E|---------------|-----------|E|---------------|-----------|
G|E|---------------|-----------|--5--5--5--5--5--5--5--5--|
D|--1--1--x--1--1--x--1--1--|--5--5--5--5--5--5--5--5--|
A|--1--1--x--1--1--x--1--1--|--3--3--3--3--3--3--3--3--|
E|--1--1--x--1--1--x--1--1--|E|---------------|-----------|

    E  E  E  E  E  E  E  E     E  E  E  E  E  E  E  E   
E|E|---------------|------------|E|---------------|-----------|
B|E|---------------|------------|E|---------------|-----------|
G|*E|---------------|-----------|E|---------------|-----------|
D|*--5--5--5--5--5--5--5--5--|--5--5--5--5--5--5--5--5--|
A|---5--5--5--5--5--5--5--5--|--5--5--5--5--5--5--5--5--|
E|---5--5--5--5--5--5--5--5--|--5--5--5--5--5--5--5--5--|

  E  E  E  E  E  E  E  E     E  E  E  E  E  E  E  E   4x
E|E|---------------|-----------|E|---------------|------------| |
B|E|---------------|-----------|E|---------------|------------| |
G|E|---------------|-----------|--5--5--5--7--7--7--8--8--*| |
D|--1--1--1--1--1--1--1--1--|--x--x--x--x--x--x--x--x--*| |
A|--1--1--1--1--1--1--1--1--|--3--3--3--5--5--5--6--6---| |
E|--1--1--1--1--1--1--1--1--|E|---------------|------------| |

                     W            PM PM PM PM PM PM W         
   E  E  E  E  E  E  E   E   3x   E  E  E  E  E  E  E   E   8x
E|E|---------------|--------------| |E|---------------|--------------||
B|E|---------------|--------------| |E|---------------|--------------||
*E|---------------|------------*||*E|---------------|------------*||
*--0--3--0--5--0--3--5~--L--*||*E|---------------|------------*||
E|---0--3--0--5--0--3--5~--| L---||---0--3--0--5--0--3--5~--L---||
B|---0--3--0--5--0--3--5~--| L---||---0--3--0--5--0--3--5~--L---||


  PM PM PM PM PM PM                                                    
  E  E  E  E  E  E  E  E     E  E  H        Q       H        H         
E|E|---------------|-----------|E|---------------|-------|E|---------------|-----|
B|E|---------------|-----------|E|---------------|-------|E|---------------|-----|
G|E|---------------|-----5--5--|--5--5E|---------------|-|E|---------------|-----|
D|--0--3--0--1--1--1--x--x--|--x--x--5--------| L----|--L--------L--------|
A|--0--3--0--1--1--1--3--3--|--3--3--5--------| L----|--L--------L--------|
E|--0--3--0--1--1--1--------|--------5--------| L----|--L--------L--------|

  W                   W                   W                   W                 
E|E|---------------|----|E|---------------|----|E|---------------|----|E|---------------|----|
B|E|---------------|----|E|---------------|----|E|---------------|----|E|---------------|----|
G|E|---------------|----|--5E|---------------|-|E|---------------|----|E|---------------|----|
D|--1E|---------------|-|--5E|---------------|-|--5E|---------------|-|--| LE|---------------|-|
A|--1E|---------------|-|--3E|---------------|-|--5E|---------------|-|--| LE|---------------|-|
E|--1E|---------------|-|E|---------------|----|--5E|---------------|-|--| LE|---------------|-|

  W                   E  E  E  E  E  Q.          E  E  E  E  E  E  E  E   
E|E|---------------|----|E|---------------|---------| |E|---------------|------------|
B|E|---------------|----|E|---------------|---------| |E|---------------|------------|
G|E|---------------|----|--5--5--5--5--5--| L------||*E|---------------|-----------|
D|--1E|---------------|-|--x--x--x--x--x---------| |*--5--5--5--5--5--5--5--5--|
A|--1E|---------------|-|--3--3--3--3--3--| L------||---5--5--5--5--5--5--5--5--|
E|--1E|---------------|-|E|---------------|---------| |---5--5--5--5--5--5--5--5--|

  E  E  E  E  E  E  E  E     E  E  E  E  E  E  E  E   
E|E|---------------|-----------|E|---------------|-----------|
B|E|---------------|-----------|E|---------------|-----------|
G|E|---------------|-----------|E|---------------|-----------|
D|--5--5--5--5--5--5--5--5--|--1--1--1--1--1--1--1--1--|
A|--5--5--5--5--5--5--5--5--|--1--1--1--1--1--1--1--1--|
E|--5--5--5--5--5--5--5--5--|--1--1--1--1--1--1--1--1--|


                                PM PM    PM PM PM   NH   NH   W          
  E  E  E  E  E  E  E  E   4x   E  E  E  E  E  E    E    E    S  S E     
E|E|---------------|------------| |E|---------------|E|---------------|------------||
B|E|---------------|------------| |E|---------------|E|---------------|------------||
G|--5--5--5--7--7--7--8--8--*| |*E|---------------|E|---------------|----------*||
D|--x--x--x--x--x--x--x--x--*| |*--0--0-----0--0--0E|---------------|-------*||
A|--3--3--3--5--5--5--6--6---| |---0--0-----0--0--0E|---------------|-------*||
E|E|---------------|------------| |---0--0-----0--0--0E|---------------|--------||

  E  E  E  E  E  E  Q         E  E  E  E  E  E  E  E   
E|E|---------------|----------| |E|---------------|------------|
B|E|---------------|----------| |E|---------------|------------|
G|E|---------------|----------| |*E|---------------|-----------|
D|--1--1-----1--1-----0----| |*--5--5--5--5--5--5--5--5--|
A|--1--1-----1--1-----0----| |---5--5--5--5--5--5--5--5--|
E|--1--1-----1--1-----0----| |---5--5--5--5--5--5--5--5--|

  E  E  E  E  E  E  E  E     E  E  E  E  E  E  E  E   
E|E|---------------|-----------|E|---------------|-----------|
B|E|---------------|-----------|E|---------------|-----------|
G|E|---------------|-----------|E|---------------|-----------|
D|--5--5--5--5--5--5--5--5--|--1--1--1--1--1--1--1--1--|
A|--5--5--5--5--5--5--5--5--|--1--1--1--1--1--1--1--1--|
E|--5--5--5--5--5--5--5--5--|--1--1--1--1--1--1--1--1--|

  E  E  E  E  E  E  E  E   4x   E  E  E  E  E  E  E  E   
E|E|---------------|------------| |E|---------------|------------|
B|E|---------------|------------| |E|---------------|------------|
G|--5--5--5--7--7--7--8--8--*| |*E|---------------|-----------|
D|--x--x--x--x--x--x--x--x--*| |*--5--5--5--5--5--5--5--5--|
A|--3--3--3--5--5--5--6--6---| |---5--5--5--5--5--5--5--5--|
E|E|---------------|------------| |---5--5--5--5--5--5--5--5--|

  E  E  E  E  E  E  E  E     E  E  E  E  E  E  E  E   
E|E|---------------|-----------|E|---------------|-----------|
B|E|---------------|-----------|E|---------------|-----------|
G|E|---------------|-----------|E|---------------|-----------|
D|--5--5--5--5--5--5--5--5--|--1--1--1--1--1--1--1--1--|
A|--5--5--5--5--5--5--5--5--|--1--1--1--1--1--1--1--1--|
E|--5--5--5--5--5--5--5--5--|--1--1--1--1--1--1--1--1--|

                                                  W         
  E  E  E  E  E  E  E  E   4x   E  E  E  E  E  E  E   E     
E|E|---------------|------------| |E|---------------|--------------||
B|E|---------------|------------| |E|---------------|--------------||
G|--5--5--5--7--7--7--8--8--*| |*E|---------------|------------*||
D|--x--x--x--x--x--x--x--x--*| |*--0--3--0--5--0--3--5~--L--*||
A|--3--3--3--5--5--5--6--6---| |---0--3--0--5--0--3--5~--L---||
E|E|---------------|------------| |---0--3--0--5--0--3--5~--L---||


                    W                               
  E  E  E  E  E  E  E   E     E   H        Q.       
E|E|---------------|------------|E|---------------|-------| |
B|E|---------------|------------|E|---------------|-------| |
G|E|---------------|------------|E|---------------|-------| |
D|--0--3--0--3--5--3--5~--3--|--5s--x--------| L------||
A|--0--3--0--3--5--3--5~--3--|--5s--x--------| L------||
E|--0--3--0--3--5--3--5~--3--|--5s--x--------| L------||

Duration Legend
E|---------------|
W - whole
H - half
Q - quarter
E - 8th
S - 16th
T - 32nd
X - 64th
. - note dotted
|-n-|  - n-tuplets


Tablature Legend
E|---------------|-
L - tied note
x - dead note
g - grace note
(n) - ghost note
> - accentuded note
NH - natural harmonic
AH - artificial harmonic
TH - tapped harmonic
SH - semi harmonic
PH - pitch harmonic
h - hammer on
p - pull off
b - bend
br - bendRelease
pb - preBend
pbr - preBendRelease
brb - bendReleaseBend
\n/ - tremolo bar dip
\n - tremolo bar dive
-/n - tremolo bar Release up
/n\ - tremolo bar inverted dip
/n - tremolo bar return
-\n - tremolo bar Release down
S - shift slide
s - legato slide
/ -  slide into from below or out of upwards
\ -  slide into from above or out of downwards
~ - vibrato
W - wide vibrato
tr - trill
TP - tremolo picking
T - tapping
S - slap
P - pop
< - fade in
^ - brush up
v - brush down
Outros vídeos desta música
    6 exibições
      • ½ Tom
      • A
      • Bb
      • B
      • C
      • Db
      • D
      • Eb
      • E
      • F
      • F#
      • G
      • Ab
    • Adicionar à lista

    Afinação da cifra

    Afinador online

      0 comentários

      Ver todos os comentários

      Entre para o Cifra Club PRO

      Tenha acesso a benefícios exclusivos no App e no Site

      • Chega de anúncios

      • Badges exclusivas

      • Mais recursos no app do Afinador

      • Atendimento Prioritário

      • Aumente seu limite de lista

      • Ajude a produzir mais conteúdo

      Cifra Club Pro

      Aproveite o Cifra Club com benefícios exclusivos e sem anúncios
      Cifra Club Pro
      Aproveite o Cifra Club com benefícios exclusivos e sem anúncios
      OK