Cifra Club

Aprenda

Consigo Continuar

Era

Cifra: Principal (violão e guitarra)
tom: E
Intro: C#m  G#m  F#m  G#m

Verso 1:
C#m
Se esta difícil
     G#m
Ou pesado pra leva
          F#m
E o que caminho que eu faço
    G#m
É difícil enfrentar
C#m
Se eu busco no nada
     G#m
Algo para me apoiar
      F#m
E a visão fica mais turva
   G#m
Tentando me engana
C#m
E o chão fica quente
      G#m
Só porque ando descalço
       F#m
Mas eu sei que sou forte
         G#m
E vou chegar do lado

Refrão:
D#m          A#m
Não quero lembrar
          G#m
De onde estou
  A#m
Uoou
D#m           A#m
Pois eu tenho fé
               G#m
Em pra onde eu vou
  A#m
Uoou

Riff:
E|--------------------------------------------|
G|--------------------------------------------|
B|--------------------------------------------|
D|-----6p4h6----------------------------------|
A|-4-4------------6p4h6------4p2h4------6p4h6-|
E|------------4-4--------2-2--------4-4-------|

Verso 2:

       C#m
Não consigo me lembrar
                G#m
Das vezes que a noite me abraçou
     F#m
E no escuro da minha alma
       G#m
O meu ego se abalou
     C#m
E as vezes que tentei
       G#m
Desse abismo escapar
      F#m
Em busca de algo firme
      G#m
Que pudesse me salvar
      C#m
E por quanto eu chorei 
      G#m
Acreditando esta sozinho
      F#m
Mas alguém me ajudou
    G#m
A seguir o Meu caminho

Refrão: 
D#m          A#m
Não quero lembrar
          G#m
De onde estou
      A#m
Barararan
D#m           A#m
Pois eu tenho fé
               G#m
Em pra onde eu vou
       A#m
Barararan

Solo:
E|--------------------------------------------|
G|--------------------------------------------|
B|--------------------------------------------|
D|-----6p4h6----------------------------------|
A|-4-4------------6p4h6------4p2h4------6p4h6-|
E|------------4-4--------2-2--------4-4-------|

E|------------------------------------------|
G|------------------------------------------|
B|--------------4-------------6-4-----------|
D|-----6p4h6--6---4--4h6-6--6-----6-4---4-6-|
A|-4-4--------------------------------7-----|
E|------------------------------------------|

E|---------4-----------------------|
G|---4-5-7---7-5-4-----------------|
B|-6---------------6--4h6----------|
D|------------------------6--4h6---|
A|-------------------------------4-|
E|---------------------------------|

Refrão:
D#m          A#m
Não quero lembrar
          G#m
De onde estou
      A#m
Barararan
D#m           A#m
Pois eu tenho fé
               G#m
Em pra onde eu vou
       A#m
Barararan          2x
Composição de Elohim Guanacoma
Colaboração e revisão:
  • Elohim Guanacoma
117 exibições
    • ½ Tom
    • A
    • Bb
    • B
    • C
    • Db
    • D
    • Eb
    • E
    • F
    • F#
    • G
    • Ab
  • Adicionar à lista

    0 comentários

    Ver todos os comentários

    Conseguiu tocar?

    0 Tocaram 0 Ainda não

    Grave um vídeo tocando Consigo Continuar e nos envie!

    00:00 / 00:00
    outros vídeos desta música
    repetir qualidade Automático
    Outros vídeos desta música
    00:00 / 00:00
    Automático

    Cifra Club Pro

    Aproveite o Cifra Club com benefícios exclusivos e sem anúncios
    Cifra Club Pro
    Aproveite o Cifra Club com benefícios exclusivos e sem anúncios
    OK