Cifra Club

Aprenda

Sinfoni Deo

Era

Cifra: Principal (violão e guitarra)
tom: G
Em         Am
  Lance Valante
D         G
  Sinfoni Deo Dira
C        Am
  Pare Dirella
   F#    B
Senso María

Em        Am
  Senso María
D       G
  Ore Pare Dio Me
C         Am
  Sinfoni Deo
   F#    B
Cante María

E|-7-5-----7-5----------------------------|
B|-----8-7-----8-7------------------------|
D|----------------------------------------|
G|----------------------------------------|
A|----------------------------------------|
E|----------------------------------------|

Obs. este solo se repete durante todo o refrão até "That Earth is...", pois em "We'll stand and..." muda para:

E|---------7-----------------------------|
B|-7-8-7-8---8-7-8-----------------------|
D|---------------------------------------|
G|---------------------------------------|
A|---------------------------------------|
E|---------------------------------------|

G
  Until we can walk on free land
D
  Until we can choose who to love
E
  Until we can dance on honour
C
  You hold my hands together

G
  Until we can walk on free land
D
  Until we can tell the children
E
  That Earth is a safe place again
C
  We'll stand and hold together

E|---------7-----------------------|
B|-7-8-7-8---8-7-8-----------------|
D|---------------------------------|
G|---------------------------------|
A|---------------------------------|
E|---------------------------------|

Em        Am
  Senso María
D       G
  Ore Pare Dio Me
C         Am
  Sinfoni Deo
   F#    B
Cante María

Em   Am   D     G
A... ve Marí... a
C    Am   F#   B
A... ve Marí... a

E|-7-5-----7-5-----|
B|-----8-7-----8-7-|
D|-----------------|
G|-----------------|
A|-----------------|
E|-----------------|

Obs. este solo se repete durante todo o refrão até "That Earth is...", pois em "We'll hold our..." muda para:

E|---------7-------|
B|-7-8-7-8---8-7-8-|
D|-----------------|
G|-----------------|
A|-----------------|
E|-----------------|

G
  Until we can walk on free land
D
  Until we can choose who to love
E
  Until we can dance on honour
C
  You hold my hands together

G
  Until we can walk on free land
D
  Until we can tell the children
E
  That Earth is a safe place again
C
  We'll stand and hold together

G
  Until the can choose who to love
D
  Until the colour of your skin
E
  Is not a fool twist of fate
C
  We'll hold our hands together

E|---------7----------------------|
B|-7-8-7-8---8-7-8----------------|
D|--------------------------------|
G|--------------------------------|
A|--------------------------------|
E|--------------------------------|

Em         Am
  Lance Valante
D         G
  Sinfoni Deo Dira
C        Am
  Pare Dirella
   F#    B
Senso María
  
             G                  D               E                  C
E|-7-5-----7-5-----|-7-5-----7-5-----|-7-5-----7-5-----|-7-5-----7-5-----|
B|-----8-7-----8-7-|-----8-7-----8-7-|-----8-7-----8-7-|-----8-7-----8-7-|
D|-----------------|-----------------|-----------------|-----------------|
G|-----------------|-----------------|-----------------|-----------------|
A|-----------------|-----------------|-----------------|-----------------|
E|-----------------|-----------------|-----------------|-----------------|

              G                 D                 E               C
E|-7-5-----7-5-----|-7-5-----7-5-----|-7-5-----7-5-----|-7-5-----7-5-----|
B|-----8-7-----8-7-|-----8-7-----8-7-|-----8-7-----8-7-|-----8-7-----8-7-|
D|-----------------|-----------------|-----------------|-----------------|
G|-----------------|-----------------|-----------------|-----------------|
A|-----------------|-----------------|-----------------|-----------------|
E|-----------------|-----------------|-----------------|-----------------|

Obs. esta base e solo se repetem durante todo o refrão até "Until we can dance on honour".

Until we can walk on free land
Until the can choose who to love
Until we can dance on honour
You hold my hands together

Until we can walk on free land
Until we can tell the children
That Earth is a safe place again
We'll stand and hold together

Until the can choose who to love
Until the colour of your skin
Is not a foul twist of fate
We'll hold our hands together

Until we can walk on free land
Until the can choose who to love
Until we can dance on honour

                     C
E|---------7---------------7-------|
B|-7-8-7-8---8-7-8-7-8-7-8---8-7-8-|
D|---------------------------------|
G|---------------------------------|
A|---------------------------------|
E|---------------------------------|
Composição de Eric Lévi
Colaboração e revisão:
  • João Silva
  • Pedro Rocha
342 exibições
    • ½ Tom
    • A
    • Bb
    • B
    • C
    • Db
    • D
    • Eb
    • E
    • F
    • F#
    • G
    • Ab
  • Adicionar à lista

    0 comentários

    Ver todos os comentários

    Conseguiu tocar?

    1 Tocaram 0 Ainda não

    Grave um vídeo tocando Sinfoni Deo e nos envie!

    00:00 / 00:00
    outros vídeos desta música
    repetir qualidade Automático
    Outros vídeos desta música
    00:00 / 00:00
    Automático

    Cifra Club Pro

    Aproveite o Cifra Club com benefícios exclusivos e sem anúncios
    Cifra Club Pro
    Aproveite o Cifra Club com benefícios exclusivos e sem anúncios
    OK