Cifra Club

Bogchi Hokbu

Eraserheads

Cifra: Principal (violão e guitarra)
tom: F#
Album: Sticker Happy
Submitted by: bogey

Intro: (sunud-sunod yung mga instrument dyan, pagkatapos)

E|-------------------------------------------------------------------|
B|--6---6---6-6---66------6---6---6-6---66------6--6--66-------------|
G|----7---7-----7----7---7---7---7----7----7---7--7--7---7-----------|
D|-------------------------------------------------------------------|
A|-------------------------------------------------------------------|
E|-------------------------------------------------------------------|

Then...

E|----------------------------------------|
B|-----6---6---6-6---8-8-8----------------|
G|---7---7---7-----7----------------------|
D|----------------------------------------|
A|----------------------------------------|
E|----------------------------------------|

E|-------------------------------------------------|
B|-----6---6---6-6---66---------6---6---6-6---66---|
G|----7---7---7----7----7------7---7---7----7----7-|
D|-------------------------------------------------| 2x
A|-------------------------------------------------|
E|-------------------------------------------------|
     Bogchi...                 Hokbu...

Verse: (w/effects)

E|----------------------------------------------------|
B|----6--6-6--8---------6-6--6-6-8--------------------|
G|--7-------------------------------------------------|
D|----------------------------------------------------|
A|----------------------------------------------------|
E|----------------------------------------------------|
   Wanda telas porensi to i tagas patohi...

Chorus:

E|----------------------------------------------------------------|
B|---6---6---6-6---66-----------6---6---6-6---8-8-8---------------|
G|--7---7---7----7----7--------7---7---7-----7--------------------|
D|----------------------------------------------------------------|
A|----------------------------------------------------------------|
E|----------------------------------------------------------------|
   Bogchi...                   Hokbu...

E|----------------------------------------------------------------|
B|-----6---6---6-6---66---------6---6---6-6---66------------------|
G|----7---7---7----7----7------7---7---7----7----7----------------|
D|----------------------------------------------------------------| 
A|----------------------------------------------------------------|
E|----------------------------------------------------------------|
     Bogchi...                 Hokbu...

Verse 2: (w/effects pa rin)

E|----------------------------------------------------|
B|----6--6-6--8---------6-6--6-6-8--------------------|
G|--7-------------------------------------------------|
D|----------------------------------------------------|
A|----------------------------------------------------|
E|----------------------------------------------------|
   
Repeat chorus

Adlib:

E|----1----1-----------1----1-----------1-----1-----------|
B|--3----3---3-2-2-2h3----3---3-2-2-2h3----3-----3-2-2----|
G|--------------------------------------------------------|
D|--------------------------------------------------------|
A|--------------------------------------------------------|
E|--------------------------------------------------------|

E|--------------------------------------------------------|
B|-------------2--------------2--------------2------------|
G|---4-4-4-3-4------4-4-4-3-4-----4-4-4-3-4---------------|
D|--------------------------------------------------------|
A|--------------------------------------------------------|
E|--------------------------------------------------------|

Repeat chorus (drums only)

Repeat chorus (w/ guitar)

E|--------------------------------------------------------|
B|---8-8-8---8-8-8---8-8-8-8---9-9------------------------|
G|--------------------------------------------------------|
D|--------------------------------------------------------| 4x
A|--------------------------------------------------------|
E|--------------------------------------------------------|
     Owww!

Repeat chorus (adliban niyo na lang yung gitara sa part na 'to)
00:00 / 00:00
Outros vídeos desta música
Repetir
Outros vídeos desta música
Compositor não encontrado.
218 exibições
    • ½ Tom
    • A
    • Bb
    • B
    • C
    • Db
    • D
    • Eb
    • E
    • F
    • F#
    • G
    • Ab
  • Adicionar à lista

    0 comentários

    Ver todos os comentários

    Conseguiu tocar?

    0 Tocaram 0 Ainda não

    Grave um vídeo tocando Bogchi Hokbu e nos envie!

    Entre para oCifra Club PRO

    Tenha acesso a benefícios exclusivos no App e no Site

    • Chega de anúncios

    • Prioridade de compra em lançamentos

    • Mais recursos no app do Afinador

    • Atendimento Prioritário

    • Descontos nos produtos Cifra Club

    • Ajude a produzir mais conteúdo

    00:00 / 00:00

    Cifra Club Pro

    Aproveite o Cifra Club com benefícios exclusivos e sem anúncios
    Cifra Club Pro
    Aproveite o Cifra Club com benefícios exclusivos e sem anúncios
    OK