Cifra Club

May Sumasayaw

Eraserheads

Cifra: Principal (violão e guitarra)
tom: G
ALBUM:  NATIN 99 (TRACK 7)
MADE KAPA-KAPA BY: JEFFREY DEYTO OF MANYMORE BAND

*FOR ALL BOYS WHO IS 'SUPER FAITHFUL' TO THEIR GIRLFRIENDS
 ('' = UNDER)

        SONGS ARE WRITTEN IN FILIPINO.

I GOT THESE CHORDS FROM LISTENING THE CD VERSION AND THE LIVE ACOUSTIC VERSION

LEGEND:

X - DEAD STRING
 - INSTRUCTIONS
1 - STRUM ONCE
/ - SLIDE
/< - SLIDE BACKWARD


INTRO:



e||--------------X--------X-X-||----|
B||--------------X--------X-X-||    |
G||--9-8---7-6-5-X--------X-X-||    |____ 3x
D||--9-8---7-6-5-X-5-6-7--X-X-||    |
A||--7-6---5-4-3-X-5-6-7--X-X-||    |
E||--------------X-3-4-5--X-X-||----|

e||--------------X---------||
B||--------------X---------||
G||--9-8---7-6-5-X---------||   
D||--9-8---7-6-5-X-5-6-7---||  
A||--7-6---5-4-3-X-5-6-7---||
E||--------------X-3-4-5---||





-AFTER THE DRUMBEATS-

         S          S
e||-------------------------||
B||-------------------------||
G||--7/9-9--12/14--14-------||
D||--X/X-X---X/X----X-------||
A||--5/7-7--10/12--12-------||
E||-------------------------||

VERSE:


         S          S
e||-------------------------||
B||-------------------------||
G||--7/9-9--12/14--14-------||
D||--X/X-X---X/X----X-------||
A||--5/7-7--10/12--12-------||
E||-------------------------||

NAUBOS NA SA IYAK
WALA NANG LUHANG PAPATAK
MAY NAKATAGO BANG LIHIM
ANG MGA KILOS MO'T TINGIN

CHORUS:



     1  1  1  1
e||----------------||
B||----------------||
G||-----7-----7----||
D||--5--7--5--7----||
A||--5--5--5--5----||
E||--3-----3-------||

DAPAT BANG UMASA PA
HINDI SANAY NG MAG ISA



     S  S  S  S
e||---------------||
B||---------------||
G||--5--7---------||
D||--5--7--5--7---||
A||--3--5--5--7---||
E||--------3--5---||

TAPOS NA BA ANG KANTAHAN
AT MAY SUMASAYAW PA





         S          S
e||-------------------------||----|
B||-------------------------||    |
G||--7/9-9--12/14--14-------||    |____ 2x
D||--X/X-X---X/X----X-------||    |
A||--5/7-7--10/12--12-------||    |
E||-------------------------||----|


VERSE:



         S          S
e||-------------------------||
B||-------------------------||
G||--7/9-9--12/14--14-------||
D||--X/X-X---X/X----X-------||
A||--5/7-7--10/12--12-------||
E||-------------------------||

NAHIHIBANG, NAGTATAKA
NAGTATANONG MERON PA BA
NAGHIHINTAY NA DUMATING
NANANAGINIP NG GISING

CHORUS:



     1  1  1  1
e||----------------||
B||----------------||
G||-----7-----7----||
D||--5--7--5--7----||
A||--5--5--5--5----||
E||--3-----3-------||

DAPAT BANG UMASA PA
HINDI SANAY NG MAG ISA



     S  S  S  S
e||---------------||
B||---------------||
G||--5--7---------||
D||--5--7--5--7---||
A||--3--5--5--7---||
E||--------3--5---||

TAPOS NA BA ANG KANTAHAN
AT MAY SUMASAYAW PA

SOLO:



e||--------------X--------X-X-||----|
B||--------------X--------X-X-||    |
G||--9-8---7-6-5-X--------X-X-||    |____ 3x
D||--9-8---7-6-5-X-5-6-7--X-X-||    |
A||--7-6---5-4-3-X-5-6-7--X-X-||    |
E||--------------X-3-4-5--X-X-||----|

e||--------------X---------||
B||--------------X---------||
G||--9-8---7-6-5-X---------||   
D||--9-8---7-6-5-X-5-6-7---||  
A||--7-6---5-4-3-X-5-6-7---||
E||--------------X-3-4-5---||



BRIDGE:

         S          S
e||-------------------------||----|
B||-------------------------||    |
G||--7/9-9--12/14--14-------||    |
D||--X/X-X---X/X----X-------||    |
A||--5/7-7--10/12--12-------||    |____ 4x
E||-------------------------||    |
                                  |
KAHIT NA NASASAKTAN               |
HINDI PA RIN MAHINDIAN------------|



     1  1  1  1
e||----------------||
B||----------------||
G||-----7-----7----||
D||--5--7--5--7----||
A||--5--5--5--5----||
E||--3-----3-------||

DAPAT BANG UMASA PA
HINDI SANAY NG MAG ISA



     S  S  S  S
e||---------------||
B||---------------||
G||--5--7---------||
D||--5--7--5--7---||
A||--3--5--5--7---||
E||--------3--5---||

TAPOS NA BA ANG KANTAHAN
AT MAY TUMUTUNOG PANG GITARA

OUTRO:





e||-----------------||
B||-----------------||
G||--9-----9--------||
D||--9--7--9--7/
00:00 / 00:00
Outros vídeos desta música
Repetir
Outros vídeos desta música
Compositor não encontrado.
206 exibições
    • ½ Tom
    • A
    • Bb
    • B
    • C
    • Db
    • D
    • Eb
    • E
    • F
    • F#
    • G
    • Ab
  • Adicionar à lista

    0 comentários

    Ver todos os comentários

    Conseguiu tocar?

    0 Tocaram 0 Ainda não

    Grave um vídeo tocando May Sumasayaw e nos envie!

    Entre para oCifra Club PRO

    Tenha acesso a benefícios exclusivos no App e no Site

    • Chega de anúncios

    • Prioridade de compra em lançamentos

    • Mais recursos no app do Afinador

    • Atendimento Prioritário

    • Descontos nos produtos Cifra Club

    • Ajude a produzir mais conteúdo

    00:00 / 00:00

    Cifra Club Pro

    Aproveite o Cifra Club com benefícios exclusivos e sem anúncios
    Cifra Club Pro
    Aproveite o Cifra Club com benefícios exclusivos e sem anúncios
    OK