Cifra Club

Aprenda

Bad Love

Eric Clapton

Tab de baixo: Principal
[Intro]

Parte 01

G|---------—17--12p10/9--10-12------------------|
D|-17h19p17--------------------10h12------------|
A|----------------------------------------------|
E|----------------------------------------------|
B|----------------------------------------------|

G|-8h9p8----------------------------------------|
D|-------10-------------------------------------|
A|----------12----------------------------------|
E|-------------13\10----------------------------|
B|----------------------------------------------|

[Interlúdio]

Parte 01

G|-----------5------------------------5-7-------|
D|-----3-5h7---5-----3-5-3------3-5h7-----5-3---|
A|-3h5-----------3h5--------3h5---------------1-|
E|----------------------------------------------|
B|----------------------------------------------|

Parte 02
             T T T T T T
G|----------------------------------------------|
D|----------------------------------------------|
A|-5-3-3h5-------------3-5-3--------------------|
E|---------3-x-x-3-3-5-------3-x-x--3-3-1-0-----|
B|----------------------------------------------|

G|----------------------------------------------|
D|----------------------------------------------|
A|----3-------------------3--1------------------|
E|-------x-3--3-3-----3h5-----------------------|
B|-3--------------3-5---------------------------|

[Primeira Parte]

Parte 01

G|----------------------------------------------|
D|----------------------------------------------|
A|-2--2-2---------------------------------------|
E|--------2-0--0-0---0--5--5-5--x-5--5-5--------|
B|-----------------2----------------------------|

G|----------------------------------------------|
D|----------------------------------------------|
A|-2--2-2--2h4----------------------------------|
E|-------------0--0-0---0--5--5-5--x-5--5-5-----|
B|--------------------2-------------------------|

Parte 02

G|----------------------------------------------|
D|----------------------------------------------|
A|----3----------3----x-3-3-5---3-------3-------|
E|-6----6-5-6--3--------------6---5-6-3---------|
B|-----------------3----------------------------|

G|----------------------------------------------|
D|----------------------------------------------|
A|----------------------------------------------|
E|-3-3-3-3--------------------------------------|
B|----------------------------------------------|

[Refrão]

I've had enough bad love...

Parte 01

G|----------------------------------------------|
D|----------------------------------------------|
A|-5-3------------3--------3--------------------|
E|-----x-3--3-3-5--------3---3-x-x--3-3-1-0-----|
B|-------------------3-5------------------------|

G|----------------------------------------------|
D|----------------------------------------------|
A|----3-------------------3--1------------------|
E|-------x-3--3-3-----3h5-----------------------|
B|-3--------------3-5---------------------------|

[Interlúdio]

Parte 01

             T T T T T T
G|----------------------------------------------|
D|----------------------------------------------|
A|-5-3-3h5-------------3-5-3--------------------|
E|---------3-x-x-3-3-5-------3-x-x--3-3-1-0-----|
B|----------------------------------------------|

G|----------------------------------------------|
D|----------------------------------------------|
A|----3-------------------3--1------------------|
E|-------x-3--3-3-----3h5-----------------------|
B|-3--------------3-5---------------------------|

[Segunda Parte]

And now I see that my life has been so blue

Parte 01

G|----------------------------------------------|
D|----------------------------------------------|
A|-2--2-2---------------------------------------|
E|--------2-0--0-0---0--5--5-5--x-5--5-5--0-5---|
B|-----------------2----------------------------|


G|----------------------------------------------|
D|----------------------------------------------|
A|-2--2-2--2h4----------------------------------|
E|-------------0--0-0---0--5--5-5--x-5--5-5-----|
B|--------------------2-------------------------|

Parte 02

G|----------------------------------------------|
D|----------------------------------------------|
A|----3------------3----x-3-5---------3-------3-|
E|-6----6-6-5-6--3--------------x-x-6---5-6-3---|
B|-------------------3--------3-----------------|

G|----------------------------------------------|
D|----------------------------------------------|
A|----------------------------------------------|
E|-3-3-3-3--------------------------------------|
B|----------------------------------------------|

[Refrão]

I've had enough bad love...

Parte 01

G|----------------------------------------------|
D|----------------------------------------------|
A|-5-3------------3--------3--------------------|
E|-----x-3--3-3-5--------3---3-x-x--3-3-1-0-----|
B|-------------------3-5------------------------|

G|----------------------------------------------|
D|----------------------------------------------|
A|----3-------------------3--1------------------|
E|-------x-3--3-3-----3h5-----------------------|
B|-3--------------3-5---------------------------|

[Interlúdio]

Parte 01

             T T T T T T
G|----------------------------------------------|
D|----------------------------------------------|
A|-5-3-3h5-------------3-5-3--------------------|
E|---------3-x-x-3-3-5-------3-x-x--3-3-1-0-----|
B|----------------------------------------------|

G|----------------------------------------------|
D|----------------------------------------------|
A|----3-------------------3--1------------------|
E|-------x-3--3-3-----3h5-----------------------|
B|-3--------------3-5---------------------------|

[Solo]

Parte 01

G|----------------------------------------------|
D|----------------------------------------------|
A|-0-1-3-2-0-------5--0-1-3-2-0-----------------|
E|-----------3-2-5--------------3-2-------------|
B|----------------------------------3-----------|

Parte 02

G|----------------------------------------------|
D|----------------------------------------------|
A|-3------5--x-3-3-5--3-----x-3-5---------------|
E|---3------------------3-----------------------|
B|------3-----------------3--------3------------|

G|----------------------------------------------|
D|----------------------------------------------|
A|-3------------3h5---3-----x-3-5---------------|
E|---3------------------3-----------------------|
B|------3-x-x-3-----------3--------3------------|

Parte 03

G|----------------------------------------------|
D|----------------------------------------------|
A|-3------5--x-3-3-5--3-------x-3-5-------------|
E|---3------------------3-----------------------|
B|------3-----------------3-3--------3----------|

G|----------------------------------------------|
D|----------------------------------------------|
A|-3------5--x-3-3-5--3----5--5-5-5-5-5/13\-----|
E|---3------------------3-----------------------|
B|------3---------------------------------------|

[Interlúdio]

Parte 01
   
G|----------------------------------------------|
D|----------------------------------------------|
A|-------3-------------------3------------------|
E|---3h5---3-x-x--3-3-1-0------x-3-x-3-3---3h5--|
B|-3----------------------3--------------3------|

G|----------------------------------------------|
D|----------------------------------------------|
A|-3----------3h5--3-1--------------------------|
E|----3-x-3-3-----------------------------------|
B|----------------------------------------------|

[Refrão Final]

Parte 01

G|----------------------------------------------|
D|-------------------------3h5------------------|
A|-5-3-----------------3-----------x-3h5--------|
E|-----3-x-x-3-3-1-0-----3-----3-3--------------|
B|-------------------3--------------------------|

G|----------------------------------------------|
D|----------------------------------------------|
A|---3-----------------3------------------------|
E|-----3-x-x-3-3-1-0-----3-3-3------------------|
B|-3-----------------3---------6-5--------------|

Parte 02

G|----------------------------------------------|
D|-------------------------3h5------------------|
A|---3-----------------3-----------3h5----------|
E|-----3-x-x-3-3-1-0-----3-----3-3--------------|
B|-3-----------------3--------------------------|

G|----------------------------------------------|
D|----------------------------------------------|
A|---3-----------------3------------------------|
E|-----3-x-x-3-3-1-0-----3--3-3-3--3-3-3--------|
B|-3-----------------3--------------------------|

G|----------------------------------------------|
D|----------------------------------------------|
A|----------------------------------------------|
E|-3-3-3--3-3-----------------------------------|
B|----------------------------------------------|

Parte 04 

G|----------------------------------------------|
D|-------------------------x-3-5----------------|
A|-5-3-----------------3-----------x-x----------|
E|-----3-x-x-3-3-1-0-----3-------3--------------|
B|-------------------3--------------------------|

G|----------------------------------------------|
D|-------------------------3h5------------------|
A|-5-3-----------------3------------------------|
E|-----3-x-x-3-3-1-0-----3-----3-3--------------|
B|-------------------3-------------6-5-3--------|
Composição de Eric Clapton / Mick Jones
Colaboração e revisão:
  • Gabriel Silva
  • Ricardo Reis
1.289 exibições

0 comentários

Ver todos os comentários

Conseguiu tocar?

0 Tocaram 0 Ainda não

Grave um vídeo tocando Bad Love e nos envie!

00:00 / 00:00
Outros vídeos desta música
Repetir Qualidade Automático
Outros vídeos desta música
00:00 / 00:00
Automático
Capítulos
  • Tocando a música
  • Dicas Iniciais / Equipamentos
  • Introdução Solo
  • Introdução - Parte 1 de 2
  • Introdução - Parte 2 de 2
  • Primeira Parte - Parte 1 de 2
  • Primeira Parte - Parte 2 de 2
  • Refrão
  • Introdução 2
  • Segunda Parte - Parte 1 de 2
  • Segunda Parte - Parte 2 de 2
  • Solo de Guitarra - Parte 1 de 3
  • Solo de Guitarra - Parte 2 de 3
  • Solo de Guitarra - Parte 3 de 3
  • Introdução 4
  • Refrão Final - Parte 1 de 3
  • Refrão Final - Parte 2 de 3
  • Refrão Final - Parte 3 de 3
  • Encerramento
  • Ficha Técnica

Cifra Club Pro

Aproveite o Cifra Club com benefícios exclusivos e sem anúncios
Cifra Club Pro
Aproveite o Cifra Club com benefícios exclusivos e sem anúncios
OK