Enviar cifraEntrar

Layla

Eric Clapton

Cifra: Principal
exibições 483.791
Tom: A
Riff Intro: (2x)


E|--------------------------------------------------------------|
B|--------------------------------------------------------------|
G|----------------7--5--3--------5--------7---------------------|
D|----0h3p0---0---7--5--3--------5--------7---------------------|
A|0h3-------3-----5--3--1---0----3---0----5---------------------|
E|----------------------------3--------3------------------------|


Riff 1:(1x)


E|-------10h13p10------10---13b15--13-12---------------------10h13p10-----10---15b17r15----12---------|
B|10h13------------13--------------------13--15-------10h13------------13----------------------13---15|
G|----------------------------------------------------------------------------------------------------|
D|----------------------------------------------------------------------------------------------------|
A|----------------------------------------------------------------------------------------------------|
E|----------------------------------------------------------------------------------------------------|


Riff 2: (1x)


E|-------10h13p10------10---13b15--13-12---------------------10h13p10-----10---15b17r15----12--------------|
B|10h13------------13--------------------13--15-------10h13------------13----------------------13---15b(1/2|
G|---------------------------------------------------------------------------------------------------------|
D|---------------------------------------------------------------------------------------------------------|
A|---------------------------------------------------------------------------------------------------------|
E|---------------------------------------------------------------------------------------------------------|


C#5                                  G#5
     What will you do when  you get lonely
C#5          C5     D5         E5
     No one waitin' by your side?
F#m           B5    E                A5
You've been running hiding much too long
F#m             B5                 E
You know, it's just your foolish pride.

Refrão:

Riff 1
Lay...........la       got me on my knees
      Riff 1
Layla     begging darling please
      Riff 1                                 Riff 2
Layla     darling won't you ease my worried  mind?

C#5                       G#5
   Tried to give you consolation
C#5         C5        D5       E5
   Your old man won't let you down
F#m     B5      E                 A5
Like a fool  I fell in love with you
F#m        B5                 E
Turned my whole world upside down

Refrão:

Riff 1
Lay...........la       got me on my knees
      Riff 1
Layla     begging darling please
      Riff 1                                 Riff 2
Layla     darling won't you ease my worried  mind?

C#5                        G#5
    Make the best of the situation
C#5           C5      D5     E5
    Before  I finally go insane
F#m          B5         E            A5
Please don't say we'll never find a way
F#m      B5               E
Tell me all my love's in vain

Refrão:

Riff 1
Lay...........la       got me on my knees
      Riff 1
Layla     begging darling please
      Riff 1                                 Riff 2
Layla     darling won't you ease my worried  mind?


Riff 1
Lay...........la       got me on my knees
      Riff 1
Layla     begging darling please
      Riff 1                                 Riff 2
Layla     darling won't you ease my worried  mind?

(Solo)
          
Final:

Riff 1: (3x)


E|-------10h13p10------10---13b15--13-12----10------------------|
B|10h13------------13--------------------13---------------------|
G|--------------------------------------------------------------|
D|--------------------------------------------------------------|
A|--------------------------------------------------------------|
E|--------------------------------------------------------------|


Riff 2: (1x)


E|-------10h13p10------10---15b17--15-12------------------------|
B|10h13------------13--------------------13--13b(1/4)-----------|
G|--------------------------------------------------------------|
D|--------------------------------------------------------------|
A|--------------------------------------------------------------|
E|--------------------------------------------------------------|
  • 1
  • 2
  • 3
  • 4
  • 5
  • 6
  • 7
  • 8
  • 9
  • 10
  • 11
  • 12
    Acordes para:

      0 comentários

        mostrar mais comentários

        Conseguiu tocar?

        18tocaram3ainda não

        Grave um vídeo tocando Layla e mande pra gente!

        00:00 / 00:00
        outros vídeos desta música
        repetirqualidadeautomática
        • automática
        Outro vídeos desta música
          00:00 / 00:00
          automática
          • automática
          fecharplay/pause subir/descer velocidade
            acordes
            fechar
            OK
            Feedback