Cifra Club

Layla

Eric Clapton

Cifra: Principal (violão e guitarra)
tom: A
[Intro][Riff] D5  C5  Bb5
         C5  D5

Parte 1 de 2
E|-----------------------------------------------------|
B|-----------------------------------------------------|
G|-----------------------------------------------------|
D|-----0h3p0---0--7\5--3----3---5----5---7\------------|
A|-0h3-------3----5\3--1----0---3----0---5\------------|
E|----------------------------1--------3---------------|

E|-----------------------------------------------------|
B|-----------------------------------------------------|
G|-----------------------------------------------------|
D|-----0h3p0---0--7\5--3----3---5----5---7\------------|
A|-0h3-------3----5\3--1----0---3----0---5\------------|
E|----------------------------1--------3---------------|

Parte 2 de 2
E|-------10h13p10----10----13b15--13--12------10-------|
B|-10h13----------13----------------------13-----------|
G|-----------------------------------------------------|
D|-----------------------------------------------------|
A|-----------------------------------------------------|
E|-----------------------------------------------------|

E|-------10h13p10----10----15b17--15--12------10-------|
B|-10h13----------13----------------------13-----------|
G|-----------------------------------------------------|
D|-----------------------------------------------------|
A|-----------------------------------------------------|
E|-----------------------------------------------------|

E|-------10h13p10----10----13b15--13--12------10-------|
B|-10h13----------13----------------------13-----------|
G|-----------------------------------------------------|
D|-----------------------------------------------------|
A|-----------------------------------------------------|
E|-----------------------------------------------------|

E|-------10h13p10----10----15b17--15--12---------------|
B|-10h13----------13----------------------13b14--------|
G|-----------------------------------------------------|
D|-----------------------------------------------------|
A|-----------------------------------------------------|
E|-----------------------------------------------------|

[Primeira Parte]

[Solo] 

E|-----------------------------------------------------|
B|-12b14r12p9-10b12--10b12r10p9------------------------|
G|------------------------------11b13--11b13-11b13r11p9|
D|-----------------------------------------------------|
A|-----------------------------------------------------|
E|-----------------------------------------------------|

E|-----------------------------------------------------|
B|-----------------------------------------------------|
G|-11--11b13----b13r11p9--11--9-------9---9-9----------|
D|-------------------------------9h11------------------|
A|-----------------------------------------------------|
E|-----------------------------------------------------|

E|-----------------------------------------------------|
B|--------------------------12-------------------------|
G|------11p9-----9---11b13------b13r11--9--------------|
D|-9h11------11----------------------------11----------|
A|-----------------------------------------------------|
E|-----------------------------------------------------|

E|-----------------------------------------------------|
B|-----------------------------------------------------|
G|--------9------9-11b13---b13r11p9------9-------------|
D|-9h11-----11-----------------------11----------------|
A|-----------------------------------------------------|
E|-----------------------------------------------------|

C#m7
     What will you do 
      G#m7          C#m7
When you get lonely
              C7      D7  E7
And no one's waiting by  your side?

F#m7              B
     You've been running 
     E7              A   F#m7
And hiding much too long
               B                  E7
You know it's just your foolish pride
 A7
Layla


[Refrão]

You've got me on my knees
Layla
Begging darling please
Layla
Darling, won't you ease 
My worried mind?

[Segunda Parte]

C#m7               
     Tried to give 
          G#m7  C#m7
You consolation
               C7      D7      E7
When your old man, he let you down

F#m7         B
     Like a fool
   E7                A   F#m7
I fell in love with you
                B                 E7
You turned my whole world upside down
 A7
Layla

[Refrão]

You've got me on my knees
Layla
Begging darling please
Layla
Darling, won't you ease 
My worried mind?

[Terceira Parte]

C#m7                  
     Make the best 
           G#m7  C#m7
Of the situation
          C7      D7   E7
Before I finally go insane

F#m7               B
     Please don't say 
       E            A  F#m7
We'll never find a way
           B                 E7
Or tell me all my love's in vain
 A7
Layla

[Refrão]

You've got me on my knees
Layla
Begging darling please
Layla
Darling, won't you ease 
My worried mind?

Layla
You've got me on my knees
Layla
Begging darling please
Layla
Darling, won't you ease 
My worried mind?
00:00 / 00:00
Outros vídeos desta música
Repetir
Outros vídeos desta música
Composição de Eric Clapton / Jim Gordon
Colaboração e revisão:
  • Thiago Almeida
32.172 exibições
    • ½ Tom
    • A
    • Bb
    • B
    • C
    • Db
    • D
    • Eb
    • E
    • F
    • F#
    • G
    • Ab
  • Adicionar à lista

    0 comentários

    Ver todos os comentários

    Conseguiu tocar?

    1 Tocaram 4 Ainda não

    Grave um vídeo tocando Layla e nos envie!

    00:00 / 00:00
    Capítulos
    • Tocando a Música
    • Tocando Introdução
    • Ensinando Introdução - Parte 1 de 2
    • Ensinando Introdução - Parte 2 de 2
    • Tocando Primeira Estrofe
    • Ensinando Ritmo da Música
    • Ensinando Solo da Estrofe
    • Dica 2
    • Encerramento

    Cifra Club Pro

    Aproveite o Cifra Club com benefícios exclusivos e sem anúncios
    Cifra Club Pro
    Aproveite o Cifra Club com benefícios exclusivos e sem anúncios
    OK