Cifra Club

Aprenda

Layla

Eric Clapton

Tab de baixo: Principal
G|-----x--------x--------x--------x-----------x--------x--------|
D|-----x--------x--------x--------x-----------x--------x--------|
A|--5--x--5-----x--------x-----5--x--0--4--5--x--5-----x--------|
E|-----x-----6--x--6--8--x--8-----x-----------x-----6--x--6--8--|

G|------------------------------------------4--6------------------|
D|---------------------4--6--6--6--6--6--6------------------------|
A|4--4--4--4--4--4--7-----------------------------4--4--3--5--7---|
E|----------------------------------------------------------------|

G|----------------------------------X----------|
D|----------------------------------X----------|
A|--7--7--7--7--7---7p5-------------X----------|
E|-----------------------7--0--1--2-X-4--5--7--|

G|--------------------------9--11-11-9--------------------------| 
D|-----------------6--7--11-------------11-9--------------------| 
A|--0--4--6--7--9-----------------------------11-9--7-----------|
E|-----------------------------------------------------9--7--5--|

G|-----x--------x--------------------x--------------|
D|-----x--------x--------------------x--------------|
A|--5--x--5-----x-----------------5--x--------------|
E|-----x-----6--x--6--8--8--8--8-----x--5--8--5--8--|

G|--------------------------------------------4--6----------------|
D|-----------------------4--6--6--6--6--6--6----------------------|
A|--4--4--4--4--4--4--7-----------------------------4--4--3--5--7-|
E|----------------------------------------------------------------|

G|----------------------------------X----------|
D|----------------------------------X----------|
A|--7--7--7--7--7---7p5-------------X----------|
E|-----------------------7--0--1--2-X-4--5--7--|

G|--------------------------9--11-11-9--------------------------|
D|-----------------6--7--11-------------11-9--------------------| 
A|--0--4--6--7--9-----------------------------11-9--7-----------|
E|-----------------------------------------------------9--7--5--|

G|-----x--------x--------------------x-------------- |
D|-----x--------x--------------------x-------------- |
A|--5--x--5-----x-----------------5--x-------------- |
E|-----x-----6--x--6--8--8--8--8-----x--5--8--5--8-- |
Composição de Eric Clapton / Jim Gordon
Colaboração e revisão:
  • gustavo ferreira
20.564 exibições

0 comentários

Ver todos os comentários

Conseguiu tocar?

2 Tocaram 0 Ainda não

Grave um vídeo tocando Layla e nos envie!

00:00 / 00:00
Outros vídeos desta música
Repetir Qualidade Automático
Outros vídeos desta música
00:00 / 00:00
Automático

Cifra Club Pro

Aproveite o Cifra Club com benefícios exclusivos e sem anúncios
Cifra Club Pro
Aproveite o Cifra Club com benefícios exclusivos e sem anúncios
OK