Cifra Club

Déjame

Erick Rubin

Cifra: Principal (violão e guitarra)
Tom: E
E                         G#m
 Déjame intentarlo otra vez
C#m                    Am
Se que he tropezado y justo ya lo se
E                         G#m
Mírame a los ojos aqui estoy
C#m                    Am
Tengo mucho miedo de perderte

y no hay razon

Refrão:

E
Porque sin ti ya no respiro
G#m
En las noches tengo frio
C#m                       Am
Necesito al otra parte de mi ser
     E                       G#m
Lo mejor de mi pasado, mi presente y mi futuro
     C#m               Am
mi razon para sobrevivir

Para vivir

e|--0--2-2/4/2-----------0--2-2/4/2----------------|
B|--------------5--4~~--------------5-5/10~~-------|
G|-------------------------------------------------|
D|-------------------------------------------------|
A|-------------------------------------------------|
E|-------------------------------------------------|


e|--0--2-2/4/2-----------0--2-2/4/2----------------|
B|--------------5--4~~--------------5-5/2--2/5-5b~-|
G|-------------------------------------------------|
D|-------------------------------------------------|
A|-------------------------------------------------|
E|-------------------------------------------------|

E                         G#m
Déjame intentarlo una vez mas
C#m                    Am
Para que no viva en esta cruda realidad
E                         G#m
Déjame hundirme en mi dolor
C#m                       Am
Se que tengo mucho que aprender de los dos

Refrão:

E
Porque sin ti ya no respiro
G#m
En las noches tengo frio
C#m                       Am
Necesito al otra parte de mi ser
     E                       G#m
Lo mejor de mi pasado, mi presente y mi futuro
     C#m               Am
mi razon para sobrevivir

Para vivir

SOLO: E G#m C#m Am

PÓS SOLO:

e|--0--2-2/4/2-----------0--2-2/4/2----------------|
B|--------------5--4~~--------------5-5/10~~9h109~-|
G|-------------------------------------------------|
D|-------------------------------------------------|
A|-------------------------------------------------|
E|-------------------------------------------------|


E
Porque sin ti ya no respiro
G#m
En las noches tengo frio
C#m                       Am
Necesito al otra parte de mi ser
     E                       G#m
Lo mejor de mi pasado, mi presente y mi futuro
     C#m               Am
mi razon para sobrevivir
         E G#m C#m Am
Para vivir
         E G#m C#m Am
Para vivir
         E G#m C#m Am
Para vivir
         E G#m C#m Am
Para vivir

e|------------------|
B|------------------|
G|-------2/5~~------|
D|------------------|
A|------------------|
E|------------------|
exibições 5.030
Acordes para:
    Colaboração e revisão:
    • Felipe Vieira

    0 comentários

    mostrar mais comentários

    Conseguiu tocar?

    1 tocaram 0 ainda não

    Grave um vídeo tocando Déjame e mande pra gente!

    00:00 / 00:00
    outros vídeos desta música
    repetir qualidade Automático
    Outros vídeos desta música
    00:00 / 00:00
    Automático
    OK