Cifra Club

Aprenda

Odeon

Ernesto Nazareth

Cifra: Principal (violão e guitarra)
tom: Eb (forma dos acordes no tom de E) Afinação: Eb Ab Db Gb Bb Eb
[Primeira Parte]

E|----------5-----3-----1-------------------|
B|----------3-----2-----3-----3-------------|
G|-2p1-0----2-----2-----2-----2-------------|
D|--------3---3-2---2-0---0---4-------------|
A|--------------------------3---3-----------|
E|------------------------------------------|

E|------------------------------------------|
B|---3-----3-----3----------3---------------|
G|---3-----5-----3--------3-----------------|
D|---5-----4-----5------5-------------------|
A|--------------------5---------------------|
E|-6---6-5---5-3----6-----------------------|

E|------------------------------------------|
B|------------------------------------------|
G|------7------7-----0-----3----------------|
D|------8------8-----8-----6----------------|
A|-7/10---10-8---8-7---7-8---5--------------|
E|------------------------------------------|

E|-----------1---0---1----------------------|
B|-------------2---3---3--------------------|
G|---2-----2--------------------------------|
D|---5-----------0--------------------------|
A|-4---4-0---------------0------------------|
E|------------------------------------------|

E|----------5-----3-----1-------------------|
B|----------3-----2-----3-----3-------------|
G|-2p1-0----2-----2-----2-----2-------------|
D|--------3---3-2---2-0---0---4-------------|
A|--------------------------3---3-----------|
E|------------------------------------------|

E|------------------------------------------|
B|---3-----3-----3-----2--------------------|
G|---3-----5-----3-----3--------------------|
D|---5-----4-----5--------------------------|
A|------------------------------------------|
E|-6---6-5---5-3---3-1---1------------------|

E|------------13-13----12-10----8-6---------|
B|---11-10----12-12----10-10----8-----------|
G|---12-12----14-14----10-10--0-------------|
D|---11-11-----------0------------6---------|
A|----------0-------------------------------|
E|-0----------------------------------------|

E|---6-5----1-0-----------------------------|
B|---6-6----2----3--------------------------|
G|----------0-------------------------------|
D|-7-------------0-----0--------------------|
A|--------0--------0-0----------------------|
E|------------------------------------------|

E|----------5-----3-----1-------------------|
B|----------3-----2-----3-----3-------------|
G|-2p1-0----2-----2-----2-----2-------------|
D|--------3---3-2---2-0---0---4-------------|
A|--------------------------3---3-----------|
E|------------------------------------------|

E|------------------------------------------|
B|---3-----3-----3----------3---------------|
G|---3-----5-----3--------3-----------------|
D|---5-----4-----5------5-------------------|
A|--------------------5---------------------|
E|-6---6-5---5-3----6-----------------------|

E|------------------------------------------|
B|------------------------------------------|
G|------7------7-----0-----3----------------|
D|------8------8-----8-----6----------------|
A|-7/10---10-8---8-7---7-8---5--------------|
E|------------------------------------------|

E|-----------1---0---1----------------------|
B|-------------2---3---3--------------------|
G|---2-----2--------------------------------|
D|---5-----------0--------------------------|
A|-4---4-0---------------0------------------|
E|------------------------------------------|

E|----------5-----3-----1-------------------|
B|----------3-----2-----3-----3-------------|
G|-2p1-0----2-----2-----2-----2-------------|
D|--------3---3-2---2-0---0---4-------------|
A|--------------------------3---3-----------|
E|------------------------------------------|

E|------------------------------------------|
B|---3-----3-----3-----2--------------------|
G|---3-----5-----3-----3--------------------|
D|---5-----4-----5--------------------------|
A|------------------------------------------|
E|-6---6-5---5-3---3-1---1------------------|

E|------------13-13----12-10----8-6---------|
B|---11-10----12-12----10-10----8-----------|
G|---12-12----14-14----10-10--0-------------|
D|---11-11-----------0------------6---------|
A|----------0-------------------------------|
E|-0----------------------------------------|

E|---6-5----1-0-----------------------------|
B|---6-6----2----3--------------------------|
G|----------0-------------------------------|
D|-7-------------0--------------------------|
A|--------0--------0-0----------------------|
E|------------------------------------------|

[Segunda Parte]

E|----------5-3----5-3----3-1---------------|
B|---3------6-3----5-5----1-1---------------|
G|-----5--4------3------2-------------------|
D|-0----------------------------------------|
A|------------------------------------------|
E|--------3------3------1-------------------|

E|------------10-8----10-8----10-8----10----|
B|---8--------11-8----11-8----10-10---10----|
G|-----10--9--------9-------8---------8-----|
D|------------------------------------------|
A|-0------------------------8---------------|
E|---------0--------8---------------8-------|

E|---8-----8-6------------------------------|
B|---10----8-8----10----8----8-6------------|
G|---8-----7-7----7-----------------9--7----|
D|---------------------------7-7----6-------|
A|-8--------------------------------8-------|
E|-------6------6-----7----8------7---------|

E|------------------------------------------|
B|------------------------------------------|
G|---7--5-----------------------------------|
D|---5-------5----6--7---0------------------|
A|---7-------7----7--8-8---3----------------|
E|-7-------8----8---------------------------|

E|----------5-3----5-3----3-1---------------|
B|---3------6-3----5-5----1-1---------------|
G|-----5--4------3------2-------------------|
D|-0----------------------------------------|
A|------------------------------------------|
E|--------3------3------1-------------------|

E|------------10-8----10-8----10-8----10----|
B|---8--------11-8----11-8----10-10---10----|
G|-----10--9--------9-------8---------8-----|
D|------------------------------------------|
A|-0------------------------8---------------|
E|---------0--------8---------------8-------|

E|---8-----8-6------------------------------|
B|---10----8-8----10----8----8-6------------|
G|---8-----7-7----7-----------------9--7----|
D|---------------------------7-7----6-------|
A|-8--------------------------------8-------|
E|-------6------6-----7----8------7---------|

E|--------------------1---------------------|
B|------0-------------1---------------------|
G|---7----3-2---0-----2---------------------|
D|---5-------------3--3---------------------|
A|---7----3---3-----------------------------|
E|-7---------------1------------------------|

[Primeira Parte]

E|----------5-----3-----1-------------------|
B|----------3-----2-----3-----3-------------|
G|-2p1-0----2-----2-----2-----2-------------|
D|--------3---3-2---2-0---0---4-------------|
A|--------------------------3---3-----------|
E|------------------------------------------|

E|------------------------------------------|
B|---3-----3-----3----------3---------------|
G|---3-----5-----3--------3-----------------|
D|---5-----4-----5------5-------------------|
A|--------------------5---------------------|
E|-6---6-5---5-3----6-----------------------|

E|------------------------------------------|
B|------------------------------------------|
G|------7------7-----0-----3----------------|
D|------8------8-----8-----6----------------|
A|-7/10---10-8---8-7---7-8---5--------------|
E|------------------------------------------|

E|-----------1---0---1----------------------|
B|-------------2---3---3--------------------|
G|---2-----2--------------------------------|
D|---5-----------0--------------------------|
A|-4---4-0---------------0------------------|
E|------------------------------------------|

E|----------5-----3-----1-------------------|
B|----------3-----2-----3-----3-------------|
G|-2p1-0----2-----2-----2-----2-------------|
D|--------3---3-2---2-0---0---4-------------|
A|--------------------------3---3-----------|
E|------------------------------------------|

E|------------------------------------------|
B|---3-----3-----3-----2--------------------|
G|---3-----5-----3-----3--------------------|
D|---5-----4-----5--------------------------|
A|------------------------------------------|
E|-6---6-5---5-3---3-1---1------------------|

E|------------13-13----12-10----8-6---------|
B|---11-10----12-12----10-10----8-----------|
G|---12-12----14-14----10-10--0-------------|
D|---11-11-----------0------------6---------|
A|----------0-------------------------------|
E|-0----------------------------------------|

E|---6-5----1-0-----------------------------|
B|---6-6----2----3--------------------------|
G|----------0-------------------------------|
D|-7-------------0-----0--------------------|
A|--------0--------0-0----------------------|
E|------------------------------------------|

[Terceira Parte]

E|---------0-0-0----------------------------|
B|-1-1-1---1-1-1---3-3-3----1-1-1-----------|
G|-----------------3-3-3----2-2-2-----------|
D|-------------------2----------------------|
A|-------3-------1----------------0---------|
E|------------------------1-----------------|

E|------------------------------------------|
B|-1-1-1--1-----1---1-1-1--1-----1----------|
G|--------2-----2----------3-----3----------|
D|------------------------------------------|
A|----------3-3--------------3-3------------|
E|--------2-------2--------3-------3--------|

E|---------5-5-5----3-3-3------------5-5-5--|
B|-1-1-1---5-5-5----5-5-5----1-1-1----------|
G|---------3-3-3----3-3-3----2-2-2----------|
D|-------------------------------------3----|
A|-------3-----------------1-------0--------|
E|----------------6-------------------------|

E|---6-6-6----5-5-5----5-5-5----3-3-3-------|
B|---4-4-4----4-4-4----3-3-3----3-3-3-------|
G|---5-5-5----5-5-5----3-3-3----3-3-3-------|
D|-4--------4-------------------------------|
A|--------------------------------5---------|
E|-------------------3--------3-------------|

E|---5-5-5----3-3-3----3-3-3-----1-1-1------|
B|---2-2-2----2-2-2----3-3-3-----3-3-3------|
G|---2-2-2----2-2-2----2-2-2-----2-2-2------|
D|-------------------0----------------------|
A|--------------0---------------------------|
E|-0--------3-----------------1-------------|

E|---0-0-0----------------------------------|
B|------------3-3-3----1-1-1----------------|
G|---1-1-1----1-1-1----2-2-2----2-2-2-------|
D|--------------3------3-3-3----3-3-3-------|
A|-2--------2--------3--------3---3---------|
E|------------------------------------------|

E|-----------------------------------------|
B|--------------------------1--------------|
G|---2-2-2----0-0-0-----0-0-0--------------|
D|---3-3-3----3-3-3-----2-2-2--------------|
A|-2--------2---2-----1--------1-----------|
E|-----------------------------------------|

E|---------0-0-0----------------------------|
B|-1-1-1---1-1-1---3-3-3----1-1-1-----------|
G|-----------------3-3-3----2-2-2-----------|
D|-------------------2----------------------|
A|-------3-------1----------------0---------|
E|------------------------1-----------------|

E|------------------------------------------|
B|-1-1-1--1-----1---1-1-1--1-----1----------|
G|--------2-----2----------3-----3----------|
D|------------------------------------------|
A|----------3-3--------------3-3------------|
E|--------2-------2--------3-------3--------|

E|---------5-5-5----3-3-3------------5-5-5--|
B|-1-1-1---5-5-5----5-5-5----1-1-1----------|
G|---------3-3-3----3-3-3----2-2-2----------|
D|-------------------------------------3----|
A|-------3-----------------1-------0--------|
E|----------------6-------------------------|

E|---6-6-6----5-5-5----5-5-5----3-3-3-------|
B|---4-4-4----4-4-4----3-3-3----3-3-3-------|
G|---5-5-5----5-5-5----3-3-3----3-3-3-------|
D|-4--------4-------------------------------|
A|--------------------------------5---------|
E|-------------------3--------3-------------|

E|---5-5-5----3-3-3----3-3-3-----1-1-1------|
B|---2-2-2----2-2-2----3-3-3-----3-3-3------|
G|---2-2-2----2-2-2----2-2-2-----2-2-2------|
D|-------------------0----------------------|
A|--------------0---------------------------|
E|-0--------3-----------------1-------------|

E|---0-0-0----------------------------------|
B|------------3-3-3----1-1-1----------------|
G|---1-1-1----1-1-1----2-2-2----2-2-2-------|
D|--------------3------3-3-3----3-3-3-------|
A|-2--------2--------3--------3---3---------|
E|------------------------------------------|

E|-----------------------------------------|
B|--------------------------1--------------|
G|---2-2-2----0-0-0-----0-0-0--------------|
D|---3-3-3----3-3-3-----2-2-2--------------|
A|-2--------2---2-----1--------1-----------|
E|-----------------------------------------|

E|-------------------8----------------------|
B|----------------10------------------------|
G|-------------10---------------------------|
D|----------10------------------------------|
A|-0---8-12---------------------------------|
E|---8--------------------------------------|

E|-12p10----------0-------------------------|
B|-------10-13-11---10-8--6-----------------|
G|------------------------5-----------------|
D|------------------------7-----------------|
A|---------------------------8--------------|
E|------------------------------------------|

[Primeira Parte]

E|----------5-----3-----1-------------------|
B|----------3-----2-----3-----3-------------|
G|-2p1-0----2-----2-----2-----2-------------|
D|--------3---3-2---2-0---0---4-------------|
A|--------------------------3---3-----------|
E|------------------------------------------|

E|------------------------------------------|
B|---3-----3-----3----------3---------------|
G|---3-----5-----3--------3-----------------|
D|---5-----4-----5------5-------------------|
A|--------------------5---------------------|
E|-6---6-5---5-3----6-----------------------|

E|------------------------------------------|
B|------------------------------------------|
G|------7------7-----0-----3----------------|
D|------8------8-----8-----6----------------|
A|-7/10---10-8---8-7---7-8---5--------------|
E|------------------------------------------|

E|-----------1---0---1----------------------|
B|-------------2---3---3--------------------|
G|---2-----2--------------------------------|
D|---5-----------0--------------------------|
A|-4---4-0---------------0------------------|
E|------------------------------------------|

E|----------5-----3-----1-------------------|
B|----------3-----2-----3-----3-------------|
G|-2p1-0----2-----2-----2-----2-------------|
D|--------3---3-2---2-0---0---4-------------|
A|--------------------------3---3-----------|
E|------------------------------------------|

E|------------------------------------------|
B|---3-----3-----3-----2--------------------|
G|---3-----5-----3-----3--------------------|
D|---5-----4-----5--------------------------|
A|------------------------------------------|
E|-6---6-5---5-3---3-1---1------------------|

E|------------13-13----12-10----8-6---------|
B|---11-10----12-12----10-10----8-----------|
G|---12-12----14-14----10-10--0-------------|
D|---11-11-----------0------------6---------|
A|----------0-------------------------------|
E|-0----------------------------------------|

E|---6-5----1-0--------10-------------------|
B|---6-6----2----3-----10-------------------|
G|----------0----2-----10-------------------|
D|-7-------------0-----0--------------------|
A|--------0--------0-0----------------------|
E|------------------------------------------|
Composição de Ernesto Nazareth / Ubaldo Sciangula
Colaboração e revisão:
  • Thiago Almeida
  • Miguel Santos
  • Gabriel Lima
96.867 exibições
    • ½ Tom
    • A
    • Bb
    • B
    • C
    • Db
    • D
    • Eb
    • E
    • F
    • F#
    • G
    • Ab
  • Adicionar à lista

    0 comentários

    Ver todos os comentários

    Conseguiu tocar?

    7 Tocaram 6 Ainda não

    Grave um vídeo tocando Odeon e nos envie!

    00:00 / 00:00
    Outros vídeos desta música
    Repetir Qualidade Automático
    Outros vídeos desta música
    00:00 / 00:00
    Automático

    Cifra Club Pro

    Aproveite o Cifra Club com benefícios exclusivos e sem anúncios
    Cifra Club Pro
    Aproveite o Cifra Club com benefícios exclusivos e sem anúncios
    OK