Cifra Club

Aprenda

Invocamos

Eros Biondini

Cifra: Principal (violão e guitarra)
Tom: F
    E9           E7+
Invocamos o teu nome
    C#m7           G#m
Invocamos o teu poder
     A9             C#m7            B7/4    B7   A9   B
Invocamos a tua presença no meio de nós
E/G#     F#m    E9          E7+
In........vo.....camos o teu nome
    C#m7           G#m
Invocamos o teu poder
    A9              C#m7             B7/4   B7
Invocamos a tua presença no meio de nós
      E9            F#m      E/G#  A9
Manifesta senhor             o teu poder
     C#m7     B          F#/A#      A9
Manifesta senhor a tua for.........ça
     E/G#       A9               F#m
Manifesta senhor nesse lugar
F#m   E/G#          A9  F#m C#m7        A9 E/G#   B7/4  B7
O teu  gran...de    amooooor que tudo pode cura......r
      E9            F#m      E/G#  A9
Manifesta senhor              o teu poder
     C#m7         B          F#/A#      A9
Com prodígios, milagres, sinais
     E/G#     A9               F#m
Manifesta senhor nesse lugar
F#m   E/G#          A9  F#m C#m7        A9 E/G#   B7/4  B7
O teu  gran...de    amooooor que tudo pode cura......r

(solo) G G/B C D/C D Em B9 G A/C# F/C Am Dm7 Bb C/Bb F/A

E|--12-11-12----------|--------------------------------------------------------|
B|-----------12-------|---------------6s8-6s7----------------------------------|
G|--------------13-11-|---------7-7-----------7--7-7s9--9s11--9s11--9s11-11s12-|
D|--------------------|-7-7-7s9-----9----------9-------------------------------|
A|--------------------|--------------------------------------------------------|
E|--------------------|--------------------------------------------------------|

E|--10-----12-11-12--------9s10---10-9----------------------------10-9---------|
B|-----12~----------12-----11s12------10---9---------9s10--8---10------11------|
G|---------------------11----------------9--------5--8s9---9-9-----------------|
D|--------------------------------------------7-9------------------------------|
A|-----------------------------------------------------------------------------|
E|-----------------------------------------------------------------------------|

E|----12----12----12----13----13-17~--|
B|-11----11----11----11----11---------|
G|------------------------------------|
D|------------------------------------|
A|------------------------------------|
E|------------------------------------|

F/A         Bb    D#     Gm
Manifesta senhor  o teu poder
  Dm7      Dm7/C       G/B         Bb
Manifesta Senhor a tua for.........ça
F/A         Bb          Gm
Manifesta Senhor nesse lugar
Gm     F/A      Bb   Gm  Dm7           Bb F/A      C
O teu  gran...de    amooooor que tudo pode cura......r
F            F/A           D#  Bb/D
Manifesta senhor  o teu poder
  Dm7      Dm7/C       G/B   Bb
Com prodígios, milagres, sinais.
F/A         Bb          Gm
Manifesta senhor nesse lugar
Gm     F/A      Bb   Gm  Dm7           Bb F/A      C
O teu  gran...de    amooooor que tudo pode cura......r
Composição de Arnaldo Reis
Colaboração e revisão:
  • Guilherme Santos
  • Banda .
  • Flavio Almeida
103.251 exibições
    • ½ Tom
    • A
    • Bb
    • B
    • C
    • Db
    • D
    • Eb
    • E
    • F
    • F#
    • G
    • Ab
  • Adicionar à lista

    0 comentários

    Mostrar mais comentários
    00:00 / 00:00
    outros vídeos desta música
    repetir qualidade Automático
    Outros vídeos desta música
    00:00 / 00:00
    Automático

    Cifra Club Pro

    Aproveite o Cifra Club com benefícios exclusivos e sem anúncios
    Cifra Club Pro
    Aproveite o Cifra Club com benefícios exclusivos e sem anúncios
    OK