Cifra Club

Smooth

Escape The Fate

Cifra: Principal (violão e guitarra)
tom: C
Afinação: Drop C

Intro

Base:                           4x
E|---------------------------|--------------------------------|
B|---------------------------|--------------------------------|
G|---------------------------|--------------------------------|
D|---------------------------|--------------------------------|
A|--0-0---0---0-0--0-0---0---|--2--5-7--10-9--7-9--x----------|
E|--0-0---0---0-0--0-0---0---|--2--5-7--10-9--7-9--x-10~~~----|
PM|-----------------------|                      

Solo:
e|--------------------10-----|-10h12~~~-----------------------|
B|--------------10h12----12--|--------------------------------|
G|---------------------------|--------------------------------|
D|---------------------------|--------------------------------|
A|--0-0---0---0--------------|--------------------------------|
E|--0-0---0---0--------------|--------------------------------|
PM|------------|
e|--11-12-14-14b(15)---12-14-|-15-12-12~~~--------------------|
B|---------------------------|--------------------------------|
G|---------------------------|--------------------------------|
D|---------------------------|--------------------------------|
A|---------------------------|--------------------------------|
E|---------------------------|--------------------------------|

E|---------------------------|--------------------------------|
B|-10b-10b(10)r(10)b(12)-10b-|-10-8~~~------------------------|
G|---------------------------|--------------------------------|
D|---------------------------|--------------------------------|
A|---------------------------|--------------------------------|
E|---------------------------|--------------------------------|

E|---------------------------|
B|--8-7----------------------|
G|------9-8-8-9s11-9~~~~-----|
D|---------------------------|
A|---------------------------|
E|---------------------------|

Verso

Base:
  2x
e|---------------------------|---15----15----15----15---------|
B|---------12------12--------|---13----13----13----13---------|
G|--9h11p9----9h11----11-----|--------------------------------|
D|---------------------------|--------------------------------|
A|---------------------------|--------------------------------|
E|---------------------------|--------------------------------|
 depois
E|---------------------------|--------------------------------|
B|-------5h7-8p7-------------|-------7---12~~~----------------|
G|---5h7---------------------|-----8--------------------------|
D|---------------------------|---9----------------------------|
A|---------------------------|--------------------------------|
E|---------------------------|--------------------------------|

e|---------------------------|---15----15----15----15---------|
B|---------12------12--------|---13----13----13----13---------|
G|--9h11p9----9h11----11-----|--------------------------------|
D|---------------------------|--------------------------------|
A|---------------------------|--------------------------------|
E|---------------------------|--------------------------------|
*nota: faça isso 2 veses

Solo:
(no final do 1º verso)
e|--------------------17p15--|17-15-14-12-15-14-10-12-12~~~---|
B|----8-10b----------------17|--------------------------------|
G|--9------------------------|--------------------------------|
D|---------------------------|--------------------------------|
A|---------------------------|--------------------------------|
E|---------------------------|--------------------------------|
(no 2º verso)
E|---------------------------|--------------------------------|
B|-------------10b-10b 8h10--|--12~~~-------------------------|
G|---------------------------|--------------------------------|
D|---------------------------|--------------------------------|
A|---------------------------|--------------------------------|
E|---------------------------|--------------------------------|

Pre-refrão

Base:
  3x
e|---------------------------|---15----15----15----15---------|
B|---------12------12--------|---13----13----13----13---------|
G|--9h11p9----9h11----11-----|--------------------------------|
D|---------------------------|--------------------------------|
A|---------------------------|--------------------------------|
E|---------------------------|--------------------------------|
  depois
E|---------------------------|--------------------------------|
B|---------------------------|--------------------------------|
G|--------5-----------5------|--------5-----------5-----------|
D|-----5-----5-----5-----5---|-----5-----5-----5-----5--------|
A|--3-----------3------------|--3-----------3-----------------|
E|---------------------------|--------------------------------|
PM|-----------------------------------------------------|
E|---------------------------|--------------------------------|
B|---------------------------|--------------------------------|
G|--------4-----------4------|--4--4--4--4--4--4--4--4--------|
D|-----4-----4-----4-----4---|--4--4--4--4--4--4--4--4--------|
A|--2-----------2------------|--2--2--2--2--2--2--2--2--------|
E|---------------------------|--------------------------------|
PM|-------------------------|     

Solo:
  3x
E|---------------------------|--------------------------------|
B|---------------------------|--------------------------------|
G|---------------------------|--------------------------------|
D|-----------9--------9------|--------------------------------|
A|--7--9--7-----7--9-----9---|--10--10--10--10----------------|
E|---------------------------|--10--10--10--10----------------|
 depois
e|-------------------10-12-14|--15p14-------------------------|
B|----10-10-10-12h13---------|--------17~~~-------------------|
G|---------------------------|--------------------------------|
D|---------------------------|--------------------------------|
A|---------------------------|--------------------------------|
E|---------------------------|--------------------------------|

e|-----19-----19-22p19--19---|--------------------------------|
B|-22b----22b---------22--22b|-r(20)-22p20-22p20---22p20------|
G|---------------------------|-------------------20------21~~~|
D|---------------------------|--------------------------------|
A|---------------------------|--------------------------------|
E|---------------------------|--------------------------------|

refrão

Base:
  3x
e|--------------------------------|
B|--------------------------------|
G|--------------------------------|
D|--------------------------------|
A|--2--5-7--10-9--7-9--x----------|
E|--2--5-7--10-9--7-9--x-10~~~----|
  
E|---------------------------|
B|---------------------------|
G|---------------------------|
D|---------------------------|
A|---10.--------10---0-------|
E|---10.--------10---0-------|      

Solo:
  3x
e|--------------------------------|
B|--------------------------------|
G|--------------------------------|
D|--------------------------------|
A|--2--5-7--10-9--7-9--x----------|
E|--2--5-7--10-9--7-9--x-10~~~----|
  
E|---------------------------|
B|---------------------------|
G|---------------------------|
D|---------------------------|
A|---10.--------10---12------|
E|---10.--------10---12------|


Intro 2

Base:
  3x
e|--------------------------------|
B|--------------------------------|
G|--------------------------------|
D|--------------------------------|
A|--2--5-7--10-9--7-9--x----------|
E|--2--5-7--10-9--7-9--x-10~~~----|

Solo:

e|-10h12~~~------------------|-11-12-14-14b(15)---------12-14-|
B|---------------------------|--------------------------------|
G|---------------------------|--------------------------------|
D|---------------------------|--------------------------------|
A|---------------------------|--------------------------------|
E|---------------------------|--------------------------------|

e|-15-12-12------------------|-17b~~~-------------------------|
B|---------------------------|--------------------------------|
G|---------------------------|--------------------------------|
D|---------------------------|--------------------------------|
A|---------------------------|--------------------------------|
E|---------------------------|--------------------------------|

*Repiota o  Verso, Pre-refrão e refrão

Solo

Base:
  3x
e|--------------------------------|
B|--------------------------------|
G|--------------------------------|
D|--------------------------------|
A|--2--5-7--10-9--7-9--x----------|
E|--2--5-7--10-9--7-9--x-10~~~----|

E|---------------------------|--------------------------------|
B|---------------------------|--------------------------------|
G|--5--5--5--5--5--5--5--5---|--5--5--5--5--5--5--5--5--------|
D|--5--5--5--5--5--5--5--5---|--5--5--5--5--5--5--5--5--------|
A|--3--3--3--3--3--3--3--3---|--3--3--3--3--3--3--3--3--------|
E|---------------------------|--------------------------------|

E|---------------------------|--------------------------------|
B|---------------------------|--------------------------------|
G|--4--4--4--4--4--4--4--4---|--4--4--4--4--4--4--4--4--------|
D|--4--4--4--4--4--4--4--4---|--4--4--4--4--4--4--4--4--------|
A|--2--2--2--2--2--2--2--2---|--2--2--2--2--2--2--2--2--------|
E|---------------------------|--------------------------------|

Solo:
  Harmonia 1
E|---------------------------|
B|----------11-12--14--------|
G|----12-14------------------|
D|---------------------------|
A|---------------------------|
E|---------------------------|
  Harmonia 2
e|-------------12--17--------|
B|----15-17-19---------------|
G|---------------------------|
D|---------------------------|
A|---------------------------|
E|---------------------------|
  Harmonia 3
E|---------------------------|
B|----------19-20--22--------|
G|----19-21------------------|
D|---------------------------|
A|---------------------------|
E|---------------------------|

e|---------------------------|-14b(15)-12---------------------|
B|--15b-15b-15b-r12---12-12--|-------------10h12--12----12----|
G|-----------------14--------|------------------14-12-14-14~~~|
D|---------------------------|--------------------------------|
A|---------------------------|--------------------------------|
E|---------------------------|--------------------------------|

e|---12-14-15-14-15p14p12----|15p14p12---15p14p12---15p14p12--|
B|-12--------------------12--|--------12---------12---------12|
G|---------------------------|--------------------------------|
D|---------------------------|--------------------------------|
A|---------------------------|--------------------------------|
E|---------------------------|--------------------------------|

e|-----12-15p12-12h15-17b-17b|17b--12-1215--------------------|
B|12h15--------15------------|------------151512--1512--------|
G|---------------------------|------------------14----141412--|
D|---------------------------|------------------------------14|
A|---------------------------|--------------------------------|
E|---------------------------|--------------------------------|

e|---------------------------|77777777788888899999910--12~~~~-|
B|---------1512-----------15\|--------------------------------|
G|12-13-14-----1413121314-14\|--------------------------------|
D|---------------------------|--------------------------------|
A|---------------------------|--------------------------------|
E|---------------------------|--------------------------------|

e|------121415------121415--|----121415-22b------------------|
B|121415------121415------12|1415----------------------------|
G|--------------------------|--------------------------------|
D|--------------------------|--------------------------------|
A|--------------------------|--------------------------------|
E|--------------------------|--------------------------------|

*Repita o refrão

Outro

Base:
  7x
e|--------------------------------|
B|--------------------------------|
G|--------------------------------|
D|--------------------------------|
A|--2--5-7--10-9--7-9--x----------|
E|--2--5-7--10-9--7-9--x-10~~~----|
  
E|---------------------------|--------------------------------|
B|--15b---------15b---17b----|--------------------------------|
G|---------------------------|--------------------------------|
D|---------------------------|--------------------------------|
A|---------------------------|---------------0-0--0-0---0-----|
E|---------------------------|---------------0-0--0-0---0-----|
                                          PM|------------|
E|---------------------------|
B|---------------------------|
G|--------------------19b~~~-|
D|----------16-17--19--------|
A|----17-19------------------|
E|---------------------------|

Solo:

e|-10h12~~~------------------|-11-12-14-14b(15)---------12-14-|
B|---------------------------|--------------------------------|
G|---------------------------|--------------------------------|
D|---------------------------|--------------------------------|
A|---------------------------|--------------------------------|
E|---------------------------|--------------------------------|

e|-15-12-12------------------|-17b~~~-------------------------|
B|---------------------------|--------------------------------|
G|---------------------------|--------------------------------|
D|---------------------------|--------------------------------|
A|---------------------------|--------------------------------|
E|---------------------------|--------------------------------|
 (Há uma harmia aqui. Começa com um F)
e|-10h12~~~------------------|-11-12-14-14b(15)---------12-14-|
B|---------------------------|--------------------------------|
G|---------------------------|--------------------------------|
D|---------------------------|--------------------------------|
A|---------------------------|--------------------------------|
E|---------------------------|--------------------------------|

e|-15-12-12------------------|-17b~~~-------------------------|
B|---------------------------|--------------------------------|
G|---------------------------|--------------------------------|
D|---------------------------|--------------------------------|
A|---------------------------|--------------------------------|
E|---------------------------|--------------------------------|

e|-15b-12-12b--12-15-17b~~~--|17b-17b-17b-17b-17b-17b-17b-17b-|
B|---------------------------|--------------------------------|
G|---------------------------|--------------------------------|
D|---------------------------|--------------------------------|
A|---------------------------|--------------------------------|
E|---------------------------|--------------------------------|

e|-15b-12-12b--12-15-17b~~~--|15-221917--221917--221917-------|
B|---------------------------|---------20------20------20-----|
G|---------------------------|--------------------------------|
D|---------------------------|--------------------------------|
A|---------------------------|--------------------------------|
E|---------------------------|--------------------------------|

e|-15b-12-12b--12-15-17b~~~--|17b-17b-17b-17b-17----15--------|
B|---------------------------|-------------------17-----------|
G|---------------------------|--------------------------------|
D|---------------------------|--------------------------------|
A|---------------------------|--------------------------------|
E|---------------------------|--------------------------------|

E|---------------------------|--------------------------------|
B|--18b---------18b---20b----|--------------------------------|
G|---------------------------|--------------------------------|
D|---------------------------|--------------------------------|
A|---------------------------|---------------0-0--0-0---0-----|
E|---------------------------|---------------0-0--0-0---0-----|
                                          PM|------------|
e|--------------------22b~~~-|
B|----------19-20--22--------|
G|----19-21------------------|
D|---------------------------|
A|---------------------------|
E|---------------------------|

Obrigado pela visita espero q gostem e q votem hehehe  valeu
Composição de Itaal Shur / Rob Thomas
Colaboração e revisão:
  • luiz magalhaes
2.367 exibições
    • ½ Tom
    • A
    • Bb
    • B
    • C
    • Db
    • D
    • Eb
    • E
    • F
    • F#
    • G
    • Ab
  • Adicionar à lista

    0 comentários

    Ver todos os comentários
    00:00 / 00:00
    Outros vídeos desta música
    Repetir Qualidade Automático
    Outros vídeos desta música
    00:00 / 00:00
    Automático

    Cifra Club Pro

    Aproveite o Cifra Club com benefícios exclusivos e sem anúncios
    Cifra Club Pro
    Aproveite o Cifra Club com benefícios exclusivos e sem anúncios
    OK