Cifra Club

Sinto Muito Blues

Esteban Tavares

Cifra: Principal (violão e guitarra)
tom: F
[Intro] Dm  A

Dm
  Quem sabe ainda sou criança
A
  Ou já tô velho e não sei
Gm                   A
  Quem sabe eu já entrei na dança
      Dm
Quem sabe eu não dancei

Dm
  Disseram que eu não sei de nada
A
  E sabem tudo que eu não sei
Gm                   A
  Quem sabe a hora está errada
      Dm
Ou há horas já errei

Bb                         Dm
  Talvez eu deixe você escolher
Enquanto eu tô perdido por aqui
Bb
  Às vezes quero tudo que sonhei
   C               C#º          Dm  A
Às vezes o que eu quero é desistir

Dm
  Pedaços de papel rasgados
    A
Em cima da mesa de um bar
     Gm                  A
Não fume, não beba, não viva
                 Dm
Não pense em sonhar

Dm
  Pedaços do meu coração partido
     A
Em frente a uma carta de amor
     Gm                    A
Não chore, não ligue, não volte
             Dm
Não ouse me amar

Bb                             Dm
  Milhas e milhas tentei percorrer
Por milhas eu não soube aonde ir
   Bb
Às vezes não espero encontrar
    C                 C#º         Dm  A
Talvez um dia eu te encontre por aí

[Solo] Dm  A  Gm  A
       Dm  A  Gm  A  Dm
       Bb  Dm  Bb 
       C  C#º  Dm

E|----10b-----8----10h8-5---8h6-3--5h3-0--0h1h0------------------------------|
B|----------------------------------------------3----------------------------|
G|-10------------------------------------------------------------------------|
D|---------------------------------------------------------------------------|
A|---------------------------------------------------------------------------|
E|---------------------------------------------------------------------------|

E|-------10----8-10-10/12b---13-12------------10--8--10/12-10--10---10/13----|
B|-----------------------------------10--11----------------------10----------|
G|-/7-10---------------------------------------------------------------------|
D|---------------------------------------------------------------------------|
A|---------------------------------------------------------------------------|
E|---------------------------------------------------------------------------|

E|-------/17---18-17--15---12h13--12--10-------8h10h8-10---/12--/12---12h13-12-10-8-10---8--10--5~~~-|
B|-10-13----------------------------------10---------------------------------------------------------|
G|---------------------------------------------------------------------------------------------------|
D|---------------------------------------------------------------------------------------------------|
A|---------------------------------------------------------------------------------------------------|
E|---------------------------------------------------------------------------------------------------|

Bb                         Dm
  Talvez eu deixe você escolher
Enquanto eu me perco por aqui
Bb
  Às vezes quero tudo que sonhei
   C               C#º
Às vezes o que eu quero é desistir

Bb                            Dm
  Milhas e milhas que eu percorri
Por milhas eu não soube aonde ir
   Bb
Às vezes não espero me encontrar
    C                 C#º        Em  D  C  D
Talvez um dia eu te encontre por aí

              Em   D
Ah, eu sinto muito
          C          D
Eu sinto muito blues
          Em         D  C  D  Em
Eu sinto muito blues
00:00 / 00:00
Outros vídeos desta música
Repetir
Outros vídeos desta música
Composição de Esteban Tavares
Colaboração e revisão:
  • Alex Junior
  • Matheus Spadari
  • Luiz Fernando
54.073 exibições
    • ½ Tom
    • A
    • Bb
    • B
    • C
    • Db
    • D
    • Eb
    • E
    • F
    • F#
    • G
    • Ab
  • Adicionar à lista

    0 comentários

    Ver todos os comentários

    Conseguiu tocar?

    12 Tocaram 0 Ainda não

    Grave um vídeo tocando Sinto Muito Blues e nos envie!

    Entre para oCifra Club PRO

    Tenha acesso a benefícios exclusivos no App e no Site

    • Chega de anúncios

    • Prioridade de compra em lançamentos

    • Mais recursos no app do Afinador

    • Atendimento Prioritário

    • Descontos nos produtos Cifra Club

    • Ajude a produzir mais conteúdo

    00:00 / 00:00

    Cifra Club Pro

    Aproveite o Cifra Club com benefícios exclusivos e sem anúncios
    Cifra Club Pro
    Aproveite o Cifra Club com benefícios exclusivos e sem anúncios
    OK