Cifra Club

Cuando cae la luna

Estopa

Cifra: Principal (violão e guitarra)
Selo Cifra Club: esta cifra foi revisada para atender aos critérios oficiais da nossa Equipe de Qualidade.
tom: F#m
E|-6-6-6-6-5-3-1-1*3--5-5-5-5-3-1-------3-3-3-3-1|
B|--------------------------------5-5*6-----------|
G|------------------------------------------------|
D|------------------------------------------------|
A|------------------------------------------------|
E|------------------------------------------------|

E|------------------0-1-3-5-6-8-6*8*5--|
B|---4-3-1---0-1-3--------------------|
G|-2-----------------------------------|
D|--------------------------------------|
A|--------------------------------------|
E|--------------------------------------|


E|-10-10-10-10-8-6-5-5*6--8-8-8-8-6-5--3-3*5---|
B|---------------------------------------------|
G|---------------------------------------------|
D|---------------------------------------------|
A|---------------------------------------------|
E|----------------------------------------------|

E|-6-6-6-5-3-1-1-----------0-1-3-5-6-8-10-11-8*10--|
B|----------------4---0-1-3-------------------------|
G|------------------2-------------------------------|
D|--------------------------------------------------|
A|--------------------------------------------------|
E|--------------------------------------------------|
 F#m 
Cuando cae la luna
                               F#7          Bm 
tu mueves el pelo, mueves las caderas como ninguna
               E 
cuando cae la  noche
                                                      A 
yo me desespero tengo que encontrarte o me entran los dolores
                D 
cuando caen las horas
                                                          Bm 
piensa que es mi tiempo que se está muriendo este mal de amores
               C#7                                 F#m 
Piensa que en invierno es cuando se marchitan los corazones

          F#m                          E 
Cuando te digan que me he pasado toa la vida
                  D                     C#       C#7 
buscando tu negro pelo y tus dos blancas mejillas
            F#m                           E 
el aire que respiras el aliento que da la vida
                    D                     C#      C#7 
piensa que me estoy muriendo curandote las heridas

        F#m               E 
y yo te digo morena vente conmigo
               F#m                             E 
¿no ves que me desespero?, escucha bien lo que digo
                    D                      C#7 
prometo llevarte al cielo si te acercas un poquito.
                F#m 
Cuando venga el viento
                                      F#7                 Bm 
vienen los fantasmas a tocarme las palmas y a meterme miedo
              E 
cuando vengan dudas
                                                    A 
preguntale al aire si soy un don nadie por verte desnuda
            D 
y no me arrepiento
                                                   Bm 
de tanto sufrimiento si te tengo cerca duele mucho menos
                                 C#7                  F#m 
porque en esta vida lo que tu me pidas me lo pide el cuerpo.

          F#m                          E 
Cuando te digan que me he pasado toa la vida
                  D                      C#7 
buscando tu negro pelo y tus dos blancas mejillas
            F#m                           E 
el aire que respiras el aliento que da la vida
                    D                      C#7 
piensa que me estoy muriendo curandote las heridas

        F#m               E 
y yo te digo morena vente conmigo
               F#m                             E 
¿no ves que me desespero?, escucha bien lo que digo
                    D                      C#7 
prometo llevarte al cielo si te acercas un poquito.

        F#m               E 
y yo te digo morena vente conmigo
               F#m                             E 
¿no ves que me desespero?, escucha bien lo que digo
                    D                      C#7 
prometo llevarte al cielo si te acercas un poquito.
Outros vídeos desta música
    1.992 exibições
      • ½ Tom
      • Am
      • Bbm
      • Bm
      • Cm
      • C#m
      • Dm
      • Ebm
      • Em
      • Fm
      • F#m
      • Gm
      • G#m
    • Adicionar à lista

    Afinação da cifra

    Afinador online

      0 comentários

      Ver todos os comentários

      Entre para o Cifra Club PRO

      Tenha acesso a benefícios exclusivos no App e no Site

      • Chega de anúncios

      • Badges exclusivas

      • Mais recursos no app do Afinador

      • Atendimento Prioritário

      • Aumente seu limite de lista

      • Ajude a produzir mais conteúdo

      Cifra Club Pro

      Aproveite o Cifra Club com benefícios exclusivos e sem anúncios
      Cifra Club Pro
      Aproveite o Cifra Club com benefícios exclusivos e sem anúncios
      Ops (: Contenido disponible sólo en portugués.
      OK