Cifra Club

Aprenda

Superstitious

Europe

Cifra: Principal (violão e guitarra)
Tom: F
riff 1
e-------------------------------------------------------------------------------
b-------------------------------------------------------------------------------
g----------------------------------------------------------------------------
d------------------------------------------5-----------------------------5-7-5--
a-------5------5---8--7-----------5------5------8-------5-------5---8—7----------
e----8------8-------------------------8--------------------8---------------------


riff  2
e--------------1-0-----------3-1---------------------------------------------
b-----3--1—3--------3-1-3---------------------------------------------------
g----------------------------------------------------------------------------
d----------------------------------------------------------------------------
a----------------------------------------------------------------------------
e----------------------------------------------------------------------------


lick 1
e------------------------5b---------------------------------------------------------------------
b-----------6-5---------------8-6---------------------------------------------------------------
g---7-5-7----------5---------------7------------------------------------------------------------
d-----------------------------------------------------------------------------------------------
a-----------------------------------------------------------------------------------------------
e-----------------------------------------------------------------------------------------------

lick 2
e------------------------------------------------------------------------
b------------------------------------------------------------------------
g------------------------------------------------------------------------
d------------------------------------------------------------------------
a----5------5--8-7-------5-----------------------------------------------
e--------8-----------8---------------------------------------------------


lick 3
e------------------------------------------------------------------------
b--5-----6-5-------------------------------------------------------------
g-----5--------5---------------------------------------------------------
a------------------------------------------------------------------------
e------------------------------------------------------------------------


lick 4
e------------13---------------------------------------------------------
b---15-17-------13------------------------------------------------------
g-----------------------------------------------------------------------
d-----------------------------------------------------------------------
a-----------------------------------------------------------------------
e-----------------------------------------------------------------------

lick 5
e-----------13-----------------------------------------------------------
b--15-17-----------------------------------------------------------------
g------------------------------------------------------------------------
d------------------------------------------------------------------------
a------------------------------------------------------------------------
e------------------------------------------------------------------------

lick 6
e----10b-------------------------------------------------------------
b---------13-----13--------13------------10-10-----------------------
g-------------14------14--------14---12----------12--10--12----------
d--------------------------------------------------------------------
a--------------------------------------------------------------------
e--------------------------------------------------------------------



abaixo temos um solo longo em que o Kee Marcelo faz um " tour "  
pelos corredores do clipe. Vem depois do segundo refrão.
Legal,mas meio difícil de fazer quando ele acelera. Tem uma parte dele que 
usa o vigésimo quinto traste da guitarra, mas adaptei pras que tem 22 ou 
menos,como certas stratocasters


e-----5--6--8-6/-8-\6--5-------------5--6-8-----10b--8-6-8-------15------20b-20b-18-17-18--------
b------------------------8----6--8----------6--------------6---------13-------------------18----
g---------------------------------------------------------------------------------------------17-
d------------------------------------------------------------------------------------------------
a------------------------------------------------------------------------------------------------
e------------------------------------------------------------------------------------------------



                                   full bend
e-----------------------------------13b—13b-----------------------------------------------
b—13b---------------13-------------------------13-----------------------------------------
g---------15-14-15-------15v------------------------15-14-15-----14-----------------------
d-----------------------------------------------------------------------------17----------
a--------------------------------------------------------------------------------20-19----
e-----------------------------------------------------------------------------------------

e-----------------------------------------------------13--15---17b-17b---15--13--15--------
b--------------------------------------13-15-16--------------------------------------------
g----------------------------14-15---------------------------------------------------------
d---------------13-15--17------------------------------------------------------------------
a--13-15-17--------------------------------------------------------------------------------
e------------------------------------------------------------------------------------------

e------17-18-20--18/20\18--17-----------------17-18-20--------22b----17-18-17------20-18-17-18-17--
b------------------------------20----18--20-------------18----------------------20-----------------
g--------------------------------------------------------------------------------------------------
d--------------------------------------------------------------------------------------------------
a--------------------------------------------------------------------------------------------------
e--------------------------------------------------------------------------------------------------

e---------18-17----------------------17------17-------------------------------------------------
b---20-18-------20--------17-18-20-------20------20---18--20-18-20------------------------------
g-------------------17-20------------------------------------------17-----17--------------------
d---------------------------------------------------------------------20------20-19-20-19-------
a-----------------------------------------------------------------------------------------20-19-
e-----------------------------------------------------------------------------------------------

                                                           full bend
e------------------------17-18-20-----18-17--18-17---------------------20-17-18----------
b------------------18-20---------------------------18-------18b-18b----------------------
g---------17-19-20-------------------------------------17v-------------------------------
d---17-20--------------------------------------------------------------------------------
a----------------------------------------------------------------------------------------
e----------------------------------------------------------------------------------------

e------18\17-------------------------------17-18--20--22b-22b--20-18-20v-------------
b---------------18-17----------------18-20-------------------------------------------
g---------------------------17-19-20-------------------------------------------------
d-----------------------20-----------------------------------------------------------
a------------------------------------------------------------------------------------
e------------------------------------------------------------------------------------



Agora a cifra e onde entra cada tablatura:


Keep on walking that road and I'll follow

Keep on calling my name I'll be there

         F              Dm        C       Dm
And if a mirror should break it's easy to take
C
Cause deep down I know that you care

I'm not superstitious


riff 1


riff 2  
I'm not superstitious, I have no doubt

                                       lick 1
That there's a reason, how things turn out

riff 2
While things are changin' from day to day

                                    lick 2
I'll keep this feelin' with me all the way



Ponte:

G5             F5  G5
And I want you to know

F5               C5   lick 3
That you're on my mind

G5 F5 G5   Bb5        C5
Every day, all of the time


refrão:


           F            Em7               lick 4
So keep on walkin' that road and I'll follow
        F          Em7             lick 5  
Keep on callin' my name I'll be there
F                      Dm         C       Dm 
And if a mirror should break it's easy to take
C
Cause deep down I know that you care

I'm not superstitious


riff 1



riff 2
There might be times of wonder

When I'm on my own
                                  lick 6 
Tryin' to find out if love has gone

riff 2
It might make a difference

It might bring me down
                                            lick 2
But no superstition is gonna turn things around


ponte  refrão


solo

             F 
So keep on walkin' 

Em7              Dm    Bb
and we'll make things right

                F
So keep on dreaming

               Dm Bb  
each and every night

C7                   Dm  
We're gonna make it, that's what we'll do

F                      C7
Right to the end girl, we're gonna walk on through


refrão

riff 1 

I´m not superstitious
Composição de J. Tempest
Colaboração e revisão:
  • Gustavo Gomes
11.657 exibições
    • ½ Tom
    • A
    • Bb
    • B
    • C
    • Db
    • D
    • Eb
    • E
    • F
    • F#
    • G
    • Ab
  • Adicionar à lista

    0 comentários

    Mostrar mais comentários

    Conseguiu tocar?

    1 Tocaram 2 Ainda não

    Grave um vídeo tocando Superstitious e mande pra gente!

    00:00 / 00:00
    outros vídeos desta música
    repetir qualidade Automático
    Outros vídeos desta música
    00:00 / 00:00
    Automático

    Cifra Club Pro

    Aproveite o Cifra Club com benefícios exclusivos e sem anúncios
    7 dias grátis
    Cifra Club Pro
    Aproveite o Cifra Club com benefícios exclusivos e sem anúncios
    7 dias grátis
    OK