Enviar cifraEntrar

The Final Countdown

Europe

Cifra: Principal
exibições 302.218
Tom: F#
Introdução: F#5  D5  B5  E5
            F#5  D5  B5  E5
            F#5  (Riff 1)  D5  C#5
            F#5

(Riff 1)


   G# A5
E|------------------------------------------|
B|------------------------------------------|
G|----2-------------------------------------|
D|----2-------------------------------------|
A|----0-------------------------------------|
E|-4~---4-2-0-------------------------------|


(Riff 2)


   G#
E|------------------------------------------|
B|------------------------------------------|
G|------------------------------------------|
D|------------------------------------------|
A|------------------------------------------|
E|-4~---------------------------------------|



Primeira Parte:

F#5
    We're leaving together
                B5
But still it's farewell
F#5
    And maybe we'll come back
    (Riff 2)   A5
To earth, who can tell?
D5                   E5
   I guess there is no one to blame
A5        E/G#     F#5    E5       D5
   We're leaving ground (leaving ground)
                  C#5               E5
Will things ever be the same again?


Primeiro Refrão:
                F#5      D5  B5  E5
It's the final countdown
           F#5      D5  B5  E5
The final countdown


Segunda Parte:

F#5
    We're heading for Venus (Venus)
               B5
And still we stand tall
F#5
    'Cause maybe they've seen us (seen us)
     (Riff 2)  A5
And welcome us    all, yeah
D5               E5
   With so many light years to go
A5       E/G#        F#5    E5    D5
   And things to be found (to be found)
                    C#5             E5
I'm sure that we'll all miss her so


Segundo Refrão:

                F#5      D5  B5  E5
It's the final countdown
           F#5      D5  B5  E5
The final countdown
           F#5       (Riff 1)         D5  C#5
The final countdown (final countdown)


Base do Solo: B5  A5  D5  G5  (Riff 3)
              E5  A5  B5  F#5
              B5  A5  D5  G5  (Riff 3)
              E5  A5  B5  C#5

(Riff 3)


   G5 F#
E|------------------------------------------|
B|------------------------------------------|
G|------------------------------------------|
D|-5----------------------------------------|
A|-5----------------------------------------|
E|-3--2~------------------------------------|



Solo:

(Guitarra 1)

(Parte 1)


E|----10-14p10----10-14p10----10-14p10----10-14p10----|
B|-12----------12----------12----------12-------------|
G|----------------------------------------------------|
D|----------------------------------------------------|
A|----------------------------------------------------|
E|----------------------------------------------------|


E|----10-14p10-------12-15p12----12-15p12----12-15p12-|
B|-12----------12-14----------14----------14----------|
G|----------------------------------------------------|
D|----------------------------------------------------|
A|----------------------------------------------------|
E|----------------------------------------------------|


E|----12-15p12----12-15p12-------14-17p14----14-17p14-|
B|-14----------14----------14-15----------15----------|
G|----------------------------------------------------|
D|----------------------------------------------------|
A|----------------------------------------------------|
E|----------------------------------------------------|


E|----14-17p14----14-17p14----14-17\------------------|
B|-15----------15----------15-------------------------|
G|----------------------------------------------------|
D|----------------------------------------------------|
A|----------------------------------------------------|
E|----------------------------------------------------|


E|---7-10p7---7-10p7------7---------------------------|
B|-8--------8--------8-10---10-8-7-8-7----------------|
G|-------------------------------------9-7-9~~--------|
D|----------------------------------------------------|
A|----------------------------------------------------|
E|----------------------------------------------------|


(Parte 2)


E|----------------------------------------------------|
B|-8-8-8-7h8p7----------------------------------------|
G|-------------9-7--7---6---4---2---------------------|
D|----------------------------------------------------|
A|----------------------------------------------------|
E|----------------------------------------------------|


(Parte 3)


E|---------7-------------7----------------------------|
B|-10b12~----7-10----------10p7-9p6-7-----------------|
G|----------------9b11r---------------7-10-9p7---9----|
D|---------------------------------------------9------|
A|----------------------------------------------------|
E|----------------------------------------------------|


E|----------------------------------------------------|
B|----------------------------------------------------|
G|---7h9~---------------------------------------------|
D|-9--------------------------------------------------|
A|----------------------------------------------------|
E|----------------------------------------------------|


(Parte 4)


E|----10-14p10----10-14p10----10-14p10----10-14p10----|
B|-12----------12----------12----------12-------------|
G|----------------------------------------------------|
D|----------------------------------------------------|
A|----------------------------------------------------|
E|----------------------------------------------------|


E|----10-14p10-------12-15p12----12-15p12----12-15p12-|
B|-12----------12-14----------14----------14----------|
G|----------------------------------------------------|
D|----------------------------------------------------|
A|----------------------------------------------------|
E|----------------------------------------------------|


E|----12-15p12----12-15p12-------14-17p14----14-17p14-|
B|-14----------14----------14-15----------15----------|
G|----------------------------------------------------|
D|----------------------------------------------------|
A|----------------------------------------------------|
E|----------------------------------------------------|


E|----14-17p14----14-17p14----14-17\------------------|
B|-15----------15----------15-------------------------|
G|----------------------------------------------------|
D|----------------------------------------------------|
A|----------------------------------------------------|
E|----------------------------------------------------|


E|---7-10p7---7-10p7------7---------------------------|
B|-8--------8--------8-10---10-8-7-10-10-8-7----------|
G|-------------------------------------------9~~------|
D|----------------------------------------------------|
A|----------------------------------------------------|
E|----------------------------------------------------|


(Parte 5)


E|----------------------------------------------------|
B|-8-8-8-7h8p7-----10b12r10--------7------------------|
G|-------------9-7-----------7--9--9b11~~-------------|
D|----------------------------------------------------|
A|----------------------------------------------------|
E|----------------------------------------------------|


E|----------------------------------------------------|
B|-9------12--9---------------------------------------|
G|-11b13------11b13r~---------------------------------|
D|----------------------------------------------------|
A|----------------------------------------------------|
E|----------------------------------------------------|



(Guitarra 2)

(Parte 1)


E|----14-17p14----14-17p14----14-17p14----14-17p14----|
B|-15----------15----------15----------15-------------|
G|----------------------------------------------------|
D|----------------------------------------------------|
A|----------------------------------------------------|
E|----------------------------------------------------|


E|----14-17p14-------15-19p15----15-19p15----15-19p15-|
B|-15----------15-17----------17----------17----------|
G|----------------------------------------------------|
D|----------------------------------------------------|
A|----------------------------------------------------|
E|----------------------------------------------------|


E|----15-19p15----15-19p15-------17-21p17----17-21p17-|
B|-17----------17----------17-19----------19----------|
G|----------------------------------------------------|
D|----------------------------------------------------|
A|----------------------------------------------------|
E|----------------------------------------------------|


E|----17-21p17----17-21p17----17-21\------------------|
B|-19----------19----------19-------------------------|
G|----------------------------------------------------|
D|----------------------------------------------------|
A|----------------------------------------------------|
E|----------------------------------------------------|


E|----10-14p10----10-14p10-------10-------------------|
B|-12----------12----------12-14----14-12-10-14-12-10-|
G|------------------------------------------------~---|
D|----------------------------------------------------|
A|----------------------------------------------------|
E|----------------------------------------------------|


E|----------------------------------------------------|
B|----------------------------------------------------|
G|-11-12~---------------------------------------------|
D|----------------------------------------------------|
A|----------------------------------------------------|
E|----------------------------------------------------|


(Parte 4)


E|----14-17p14----14-17p14----14-17p14----14-17p14----|
B|-15----------15----------15----------15-------------|
G|----------------------------------------------------|
D|----------------------------------------------------|
A|----------------------------------------------------|
E|----------------------------------------------------|


E|----14-17p14-------15-19p15----15-19p15----15-19p15-|
B|-15----------15-17----------17----------17----------|
G|----------------------------------------------------|
D|----------------------------------------------------|
A|----------------------------------------------------|
E|----------------------------------------------------|


E|----15-19p15----15-19p15-------17-21p17----17-21p17-|
B|-17----------17----------17-19----------19----------|
G|----------------------------------------------------|
D|----------------------------------------------------|
A|----------------------------------------------------|
E|----------------------------------------------------|


E|----17-21p17----17-21p17----17-21\------------------|
B|-19----------19----------19-------------------------|
G|----------------------------------------------------|
D|----------------------------------------------------|
A|----------------------------------------------------|
E|----------------------------------------------------|


E|----10-14p10----10-14p10-------10-------------------|
B|-12----------12----------12-14----14-12-10-14-14-12-|
G|------------------------------------------------~---|
D|----------------------------------------------------|
A|----------------------------------------------------|
E|----------------------------------------------------|


E|----------------------------------------------------|
B|-10-------------------------------------------------|
G|----12~---------------------------------------------|
D|----------------------------------------------------|
A|----------------------------------------------------|
E|----------------------------------------------------|



Ponte: F#5  ( C#5  D5 )  B5  ( D5  E5 )
       F#5  ( C#5  D5 )  B5  ( D5  E5 )

           F#5      (Riff 1)  D5  C#5
The final countdown


Terceiro Refrão:

                F#5      D5  B5  E5
It's the final countdown
           F#5      D5  B5  E5
The final countdown
           F#5       (Riff 1)         D5  C#5
The final countdown (final countdown)

                F#5       D5
It's the final countdown
                 B5    E5
We're leaving together
            F#5       D5
(The final countdown)
                    B5  E5
We'll all miss her so
                 F#5       (Riff 1)        D5  C#5
It's the final countdown (final countdown)
                F#5
It's the final countdown
  • 1
  • 2
  • 3
  • 4
  • 5
  • 6
  • 7
  • 8
  • 9
  • 10
  • 11
  • 12
    Acordes para:
      Composição: Joey TempestColaboração e revisão:

      0 comentários

        mostrar mais comentários

        Conseguiu tocar?

        40tocaram0ainda não

        Grave um vídeo tocando The Final Countdown e mande pra gente!

        00:00 / 00:00
        outros vídeos desta música
        repetirqualidadeautomática
        • automática
        Outro vídeos desta música
          00:00 / 00:00
          automática
          • automática
          2 versões de Tab de baixoexibiçõescontribuições
          1 versão de Tab de bateriaexibiçõescontribuições
          1 versão de Tab de gaitaexibiçõescontribuições
          1 versão de Partiturasformatodownloadscontribuição
          fecharplay/pause subir/descer velocidade
            acordes
            fechar
            OK
            Feedback