Cifra Club

Lábios de Mel

Evandro Cordeiro

Cifra: Principal (violão e guitarra)
tom: D
(intro) D G D G

E|------------------------------------10--------------
B|-3-2-----3-2---------------7-7P10-10----10-12-------
G|-----4-2-----4-2---2-2P7-7--------------------12-12-
D|-----------------4----------------------------------
A|----------------------------------------------------
E|----------------------------------------------------

E|-----------------------------------------7----------------10--
B|-3-2-----3-2-------------7-7P10-10-8-7-8---8----------5P7-----
G|-----4-2-----4-2---2-2P7----------------------7---7P9---------
D|-----------------4--------------------------------------------
A|--------------------------------------------------------------
E|--------------------------------------------------------------

D                              F#m
Sempre dizia pra mim que era fiel
                                              G
Que o toque do seus lábios se assemelha ao mel
                                   A
Mas meu paladar não provou desse gosto

D                                   F#m
Com palavras marcantes me impressionava
                           G
Tanta emoção que ate imaginava
                           A
Essa é a mulher da minha vida

G                      A
Que sempre me jurou amor
D           A                Bm
Não experimentaria a dor do amor
G                            A
Que você era apaixonada por mim
D     A                 Bm
Mais vi no final não foi bem assim

(refrão)
G    A    D  A        Bm
Eu te amei mas não deu valor
G                  A
Agora chora pois me perdeu
          D   A      Bm
Não quero mais esse amor
G          D       E
Que me machucou demais
G          A       D
Que me machucou demais
Composição de Evandro Cordeiro
Colaboração e revisão:
  • rollander sa
  • Evandro Cordeiro
631 exibições
    • ½ Tom
    • A
    • Bb
    • B
    • C
    • Db
    • D
    • Eb
    • E
    • F
    • F#
    • G
    • Ab
  • Adicionar à lista

    0 comentários

    Ver todos os comentários

    Conseguiu tocar?

    0 Tocaram 0 Ainda não

    Grave um vídeo tocando Lábios de Mel e nos envie!

    00:00 / 00:00
    Outros vídeos desta música
    Repetir Qualidade Automático
    Outros vídeos desta música
    00:00 / 00:00
    Automático

    Cifra Club Pro

    Aproveite o Cifra Club com benefícios exclusivos e sem anúncios
    Cifra Club Pro
    Aproveite o Cifra Club com benefícios exclusivos e sem anúncios
    OK