Enviar cifraEntrar

Broken

Evanescence

Cifra: Principal
exibições 544.068
Tom: G Afinação: Eb Ab Db Gb Bb Eb
(intro) Em  C9  Em  C9  Em  C9  D


E|-2h3-----3--3------3---------2h3-----3--3------3---------|
B|-----0------3----3---3-----3-----0------3----3---3-----3-|
G|-------0----0--0---------0---------0----0--0---------0---|
D|-2---------------------0-----2---------------------0-----|
A|------------3---------------------------3----------------|
E|---------------------------------------------------------|


E|-2h3-----3--3------3----------0h2-----3p2---0h2-------3p2-----|
B|-----0------3----3---3-----3------3-------3-----3---3-----3---|
G|-------0----0--0---------0----------2-------------2---------0-|
D|-2---------------------0------0-------------0-----------------|
A|------------3-------------------------------------------------|
E|--------------------------------------------------------------|


Em             C9      Em        C9
I wanted you to know, I love the way you laugh
Em    C9                   D      C9
I wanna hold you high and steal your pain away
Em           C9             Em          C9
I keep your photograph, I know it serves me well
Em    C9                   D
I wanna hold you high and steal your pain

(refrão)
             C Em D       C  Em D
'Cause I'm broken when I'm lonesome
             C   Em D             C    Em C9
And I don't feel right when you're gone away
                Em C9
You've gone away
                  Em C9   D
You don't feel me here, anymore

(solo)

------------------------------|----------0-----------|
------------------------------|------0-------0-------|
--------------0-------------0-|----------------------|
--------0-2-------4---2p0-4---|--2-------------------|
----0-2-----------------------|----------------------|
--0---------------------------|----------------------|


------------------------------|--------0------------------|
------------------------------|-----3-----3------0-0-0-0--|
--------------0-------------0-|--2-----------2-2----------|
--------0-2-------4---4p0-4---|---------------------------|
----0-2-----------------------|---------------------------|
--0---------------------------|---------------------------|


Em           C9        Em       C9
The worst is over now and we can breathe again
Em        C9                D      C9
I wanna hold you high, you steal my pain away
Em         C9                    Em       C9
Theres's so much left to learn and no one left to fight
Em      C9               D
I wanna hold you higt and steal your pain

           C Em D         C Em D
'Cause I'm broken when I'm open
               C Em D
And I don't feel like I am strong enough

( Em C9 ) (4x)

           C Em D         C Em D
'Cause I'm broken when I'm open
               C Em D
And I don't feel like I am strong enough  (2x)

( Em C9 ) (4x)

           C Em D         C Em D
'Cause I'm broken when I'm open
               C Em D
And I don't feel like I am strong enough  (2x)
  • 1
  • 2
  • 3
  • 4
  • 5
  • 6
  • 7
  • 8
  • 9
  • 10
  • 11
  • 12
    Acordes para:

      0 comentários

        mostrar mais comentários

        Conseguiu tocar?

        80tocaram1ainda não

        Grave um vídeo tocando Broken e mande pra gente!

        00:00 / 00:00
        outros vídeos desta música
        repetirqualidadeautomática
        • automática
        Outro vídeos desta música
          00:00 / 00:00
          automática
          • automática
          Acordes para:violão e guitarra
          dificuldadeexibiçõescontribuições
          1 versão de Guitar Proformatodownloadscontribuição
          fecharplay/pause subir/descer velocidade
            acordes
            fechar
            OK
            Feedback