Cifra Club

Pain

Everlast

Cifra: Principal (violão e guitarra)
Selo Cifra Club: esta cifra foi revisada para atender aos critérios oficiais da nossa Equipe de Qualidade.
tom: Bm
E|E|----------------------------------------------------------------------------||
                             PAIN - Everlast
E|E|----------------------------------------------------------------------------||

Tabbed by: Titus

Song was stuck in my head so I decided to play and then remembered I made a tab for this.  Come to find out 
the tab and what I played didn't match, so now I've revised it for a more accurate tab. 

ChrisCross submitted a revised tab in Ver 2 as well, his tab helped me confirm there is a B chord (even though
his is wrong LOL, no hard feeling brother :) )

For the newbsters: On the B chord, if you have difficulty barring this chord, you can lay (bar) the pinky 
across the 4th fret and don't worry about the high E.  You will get the same effect and still sounds good.

Enjoy! 


Tuning: Standard

  Verse and prechorus
  D  D U D U D  D U D U D  D U D U D U D  D     D
E|0--0-0-0-0-3--3-3-3-3-2--2-2---------0------------|
B|0--0-0-0-0-3--3-3-3-3-3--4-4-x-x-x-x-0--0-----0---|
G|0--0-0-0-0-0--0-0-0-0-3--4-4-x-x-x-x-2--0h2p0-0---|
D|2--2-2-2-2-0--0-0-0-0-3--4-4-x-x-x-x-2--0h2p0-0---|
A|2--2-2-2-2-2--2-2-2-2-2--2-2-x-x-x-x-0--0-----0---|
E|0--0-0-0-0-3--3-3-3-3-x--x-x-x-x-x-x--------------|

^play as many times necessary

 During Prechorus, Gtr II jumps in on the D chord w/ Dist.

E|-0-3-5--8-7----|
B|---------------|
G|---------------|
D|---------------|
A|---------------|
E|---------------|

 Guitar I & Guitar II w/ Dist.

E|-----------------------------|
B|-----------------------------|
G|-----------------------------|
D|-2--2-4-5--5-4-2--2-4-5--7---|
A|-2--2-4-5--5-4-2--2-4-5--7---|
E|-0--0-2-3--3-2-0--0-2-3--5---|

  Gtr I after chorus, I can't quite make this one out
 
E|------------0---|-----------------0-|
B|--------------0-|-----------------0-|
G|------0---0-----|----------0--------|
D|---2------------|------2-----2------|
A|-2---2--2-------|--------2------2---|
E|----------------|-b3p0--------------|

   Bridge
   D D D D D D D D D D D D D    U D    U D  D
E|------------------------------------------------------------|
B|------------------------------------------------------------|
G|------------------------------------------------------------|
D|-2-2-2-2-5-5-5-5-7-7-7-7-9\7--7-7\5--5-5--2-----------------|
A|-2-2-2-2-5-5-5-5-7-7-7-7-9\7--7-7\5--5-5--2-----------------|
E|-0-0-0-0-3-3-3-3-5-5-5-5-7\5--5-5\3--3-3--0-----------------|

E|------------0---|-----------------0-|
B|--------------0-|-----------------0-|
G|------0---0-----|----------0--------|
D|---2------------|------2-----2------|
A|-2---2--2-------|--------2------2---|
E|----------------|-b3p0--------------|


  Verse and prechorus
  D  D U D U D  D U D U D  D U D U D U D  D     D
E|0--0-0-0-0-3--3-3-3-3-2--2-2---------0------------|
B|0--0-0-0-0-3--3-3-3-3-3--3-3-x-x-x-x-0--0-----0---|
G|0--0-0-0-0-0--0-0-0-0-3--3-3-x-x-x-x-2--0h2p0-0---|
D|2--2-2-2-2-0--0-0-0-0-3--3-3-x-x-x-x-2--0h2p0-0---|
A|2--2-2-2-2-2--2-2-2-2-2--2-2-x-x-x-x-0--0-----0---|
E|0--0-0-0-0-3--3-3-3-3-x--x-x-x-x-x-x--------------|


  Guitar I & Guitar II w/ Dist.

E|-----------------------------|
B|-----------------------------|
G|-----------------------------|
D|-2--2-4-5--5-4-2--2-4-5--7---|
A|-2--2-4-5--5-4-2--2-4-5--7---|
E|-0--0-2-3--3-2-0--0-2-3--5---|


Let last chord ring out




| /  slide up
| \  slide down
| h  hammer-on
| p  pull-off
| ~  vibrato
| +  harmonic
| x  Mute note
===========================================================================
Outros vídeos desta música
    8 exibições
      • ½ Tom
      • Am
      • Bbm
      • Bm
      • Cm
      • C#m
      • Dm
      • Ebm
      • Em
      • Fm
      • F#m
      • Gm
      • G#m
    • Adicionar à lista

    Afinação da cifra

    Afinador online

      0 comentários

      Ver todos os comentários

      Conseguiu tocar?

      0Tocaram0Ainda não

      Grave um vídeo tocando Pain e nos envie!

      Toque também

      1. Imagem do artista Kid RockAll Summer Long Kid Rock
      2. Imagem do artista Cypress HillRock Superstar Cypress Hill
      3. Imagem do artista House Of PainFaster Pussycat House Of Pain
      4. Imagem do artista Ill BillGlenwood Projects Ill Bill

      Entre para o Cifra Club PRO

      Tenha acesso a benefícios exclusivos no App e no Site

      • Chega de anúncios

      • Badges exclusivas

      • Mais recursos no app do Afinador

      • Atendimento Prioritário

      • Aumente seu limite de lista

      • Ajude a produzir mais conteúdo

      Cifra Club Pro

      Aproveite o Cifra Club com benefícios exclusivos e sem anúncios
      Cifra Club Pro
      Aproveite o Cifra Club com benefícios exclusivos e sem anúncios
      OK