Cifra Club

Brainchild

Everything Everything

Cifra: Principal (violão e guitarra)
Selo Cifra Club: esta cifra foi revisada para atender aos critérios oficiais da nossa Equipe de Qualidade.
tom: E
intro
E|-------------------------------------------------------------------------------|
B|------------------------------------------11-------11-------11-------11--------|
G|--10---10---10---10---10---10---10---10-------10-------10-------10-------10----|
D|----11---11---11---11---11---11---11---11---11--11---11--11---11--11---11--11--|
A|-------------------------------------------------------------------------------|
E|-------------------------------------------------------------------------------|


verse - palm muted
E|-------------------------------|-------------------------------|
B|-------------------------------|------12-----------------------|
G|--8---11-9-8-----8-11-8--6--6--|--8------9-8-----8-11-8--6--6--|
D|-------------9---9-11-9--8--8--|-------------9---9-11-9--8--8--|
A|-------------------------------|-------------------------------|
E|-------------------------------|-------------------------------|

E|---------------|----------------|
B|---------------|----------------|
G|--8-------6----|--8-------6--6--| alternate these until the next part
D|------9---8----|------9---8--8--|
A|---------------|----------------|
E|---------------|----------------|

"a good thing.."
E|--------------------------------------|--------------------------------------|
B|--------------------------------------|-------12-12-----12-------------------|
G|--8---11-9-11-9-11----11-8--x-6--x-6--|--8--9-------9-8------11-8--x-6--x-6--|
D|---------------------9---9--x-8--x-8--|---------------------9---9--x-8--x-8--|
A|--------------------------------------|--------------------------------------|
E|--------------------------------------|--------------------------------------|


chorus - guitar 1
E|------------------------------------------------------------------------------------------------------------|
B|---------------------------------------------7-9-10-9-7---7-9-7-------------------7-9-10-9-7---7-9-7---11~--|
G|--11p8----------8b9-9r8p6p4-----11p8--------------------9-------9--8b9-9r8p6p4---------------9-------9-10~--|
D|------9-----------------------------9-----------------------------------------------------------------------|
A|--------9-6------------------6-------9-6-----------------------------------------6--------------------------|
E|------------------------------------------------------------------------------------------------------------|

chorus - guitar 2
E|--14-16-------14-16-------14-16--16-17--------------|--14-16------14-16------------------|------------------|
B|--16-17-17----16-17-17----16-17--17-19--------------|--16-17-17---16-17-17---------------|------------------|
G|--------18----------18------------------------------|--------18---------18---------------|--10---(8| times)--|
D|----------------------------------------tw| ice, then-|----------------------- twice, then-|----11-(       )--|
A|----------------------------------------------------|------------------------------------|------------------|
E|----------------------------------------------------|------------------------------------|------------------|
Outros vídeos desta música
    3 exibições
      • ½ Tom
      • A
      • Bb
      • B
      • C
      • Db
      • D
      • Eb
      • E
      • F
      • F#
      • G
      • Ab
    • Adicionar à lista

    Afinação da cifra

    Afinador online

      0 comentários

      Ver todos os comentários

      Conseguiu tocar?

      0Tocaram0Ainda não

      Grave um vídeo tocando Brainchild e nos envie!

      Toque também

      1. Imagem do artista Bombay Bicycle ClubIvy Bombay Bicycle Club
      2. Imagem do artista Fenech-SolerStop And Stare Fenech-Soler
      3. Imagem do artista Little CometsViolence Out Tonight Little Comets
      4. Imagem do artista Darwin DeezUp In The Clouds Darwin Deez

      Entre para o Cifra Club PRO

      Tenha acesso a benefícios exclusivos no App e no Site

      • Chega de anúncios

      • Badges exclusivas

      • Mais recursos no app do Afinador

      • Atendimento Prioritário

      • Aumente seu limite de lista

      • Ajude a produzir mais conteúdo

      Cifra Club Pro

      Aproveite o Cifra Club com benefícios exclusivos e sem anúncios
      Cifra Club Pro
      Aproveite o Cifra Club com benefícios exclusivos e sem anúncios
      Ops (: Contenido disponible sólo en portugués.
      OK