Cifra Club

Aprenda

Mars Stars

Exit mouse

Cifra: Principal (violão e guitarra)
Já pensou em usar uma coleção de roupas do Cifra Club? Responda as perguntas abaixo e nos ajude nessa missão! →
tom: G
[Intro] B4  C#5  A#4  A4

  B4                      C#5     A#4                  A4
E|-7-------7-------7-------9-------6------6------6------5-----|
B|------------------------------------------------------------|
G|-----7-------7-------7--------7------6------6------6------6-|
D|---5-------5-------5-------5-------5------5------5------5---|
A|------------------------------------------------------------|
E|------------------------------------------------------------|

  B4             A4            G4
E|-7-------7------5------5------3------3------3------3--------|
B|------------------------------------------------------------|
G|-----7-------7------5------5------3------3------3------3----|
D|---5-------5------5------5------5------5------5------5------|
A|------------------------------------------------------------|
E|------------------------------------------------------------|

  F#4           E4     G4     F#4             E4     G4
E|-2------2------0------3------2------2--------0------3-------|
B|------------------------------------------------------------|
G|---0-2----0-2----0-2----0-2----0-2----0-2------0-2----0-2---|
D|------------------------------------------------------------|
A|------------------------------------------------------------|
E|------------------------------------------------------------|

 F#4              E4     G4     F#4
E|-2------2-------0------3------2------2----------------------|
B|------------------------------------------------------------|
G|---0-2----0-2-----0-2----0-2----0-2----0-2------------------|
D|------------------------------------------------------------|
A|------------------------------------------------------------|
E|------------------------------------------------------------|

[Primeira Parte]

B4                       C#5  A#4          A4       B4      C#5  A#4  A4
  This world is full of life,     intelligent or otherwise
B4        C#5      A#4            A4   B4  C#5  A#4  A4
  Our cities are stars in the Martian sky
(Parte B)
B4            A4          G4                                F#4
  Somewhere distant, a comet flies and we're too bright to see it
E4  G4    F#4  E4  G4  F#4       
We are blind in our good eye

( E4  G4  F#4 )
( E4  G4  G  D )

G                      F#
  If dogs hail from Jupiter
               Bm             D
Then I'm most certainly from Mars
G           F#          Bm
  I see it better than you do
    D           G    F#  G  F#
And I'm almost bli__________nd

( B4  C#5  A#4  A4 )
( B4  C#5  A#4  A4 )

B4                     C#5  A#4                  A4       B4    C#5  A#4  A4
  This Earth reeks of life,   belligerent or otherwise
B4                C#5      A#4           A4  B4     C#5  A#4  A4
  Strangers don't come anymore. They fear our skies
B4           A4       G4                               F#4
  Somewhere distant, a dog laughs and we're to dull to hear it
E4  G4    F#4  E4  G4  F#4
Our ears full o__f   lie_s

( E4  G4  F#4 )
( E4  G4  G  D )

G                     F# 
  The dogs hail from Jupiter
               Bm          D
And I'm undoubtedly from Mars
G              F#        Bm
  I hear it better than most do
D               G  F#  Bm   D
And I'm nearly de_______af
            G  F#  Bm    D
I'm nearly de________af
G  F#       Bm     D
 We are just stars
G   F#       Bm     D
 We are just lights
G     F#     Bm   D
 They are the dogs
G    F#     Bm
 And I am alone
D
         G    F#   Bm  D
On this dust___y planet
G          F#            Bm  D
Looking into the night sky
G            F#            Bm
 And I see all of those cities
D            G
Lose their shine
Compositor não encontrado.
Colaboração e revisão:
  • Giovana Lied
  • Rodrigo Diniz
15 exibições
    • ½ Tom
    • A
    • Bb
    • B
    • C
    • Db
    • D
    • Eb
    • E
    • F
    • F#
    • G
    • Ab
  • Adicionar à lista

    0 comentários

    Ver todos os comentários

    Conseguiu tocar?

    2 Tocaram 0 Ainda não

    Grave um vídeo tocando Mars Stars e nos envie!

    00:00 / 00:00
    Outros vídeos desta música
    Repetir Qualidade Automático
    Outros vídeos desta música
    00:00 / 00:00
    Automático

    Cifra Club Pro

    Aproveite o Cifra Club com benefícios exclusivos e sem anúncios
    Cifra Club Pro
    Aproveite o Cifra Club com benefícios exclusivos e sem anúncios
    OK