Cifra Club

Aprenda

For Life

EXO

Cifra: Principal (violão e guitarra)
Tom: Eb (forma dos acordes no tom de D) Capotraste na 1ª casa
[Intro]

     D   Dm7  D7              Gadd9       Gm7M
E|-2---2----2------2--3--5---5-----3-----2-----0------|
B|-3---2----1----1-----------3-----3-----3-----3------|
E|-2---2----2--2-------------4-----4-----3-----3------|
D|-0---0----0-----------------------------------------|
A|----------------------------------------------------|
E|---------------------------3-----3-----3-----3------|

[Verso 1] 

     D   Dm7  D7              Gadd9       Gm7M
E|-2---2----2------2--3--5---5-----3-----2-----0------|
B|-3---2----1----1-----------3-----3-----3-----3------|
E|-2---2----2--2-------------4-----4-----3-----3------|
D|-0---0----0-----------------------------------------|
A|----------------------------------------------------|
E|---------------------------3-----3-----3-----3------|

D       Dm7        D7               Gadd9      Gm7M
Cheonsaye eolgullo naegero watteon mystery neoran ongi 

[Verse 2]

     D   Dm7    C#7    F#7  Bm7  F#m E
E|-2---2----------------------------------------------|
B|-3---2--2-----5----------3--------------------------|
E|-2---2---2-----4---3------2--2-1--------------------|
D|-0-----------5------2---4----4-2--------------------|
A|------------4-----4----2----------------------------|
E|-----------------2----------------------------------|

D       Dm7          C#7          F#7    Bm7   F#m     E
Ni gyeote meomulmyeo neol saranghal geu han saram narani

[Pre-Refrão]

        G7M        A7/G      F#m7     Am9/B  B7
E|----------------------------------------------------|
B|---3---3------2---2------2---2-----1--0-------------|
E|---4---4------2---2------2---2-----2--2-------------|
D|--4---4--4---2---2--2---2---2--2---1--1-------------|
A|-----------------------------------2--2-------------|
E|-3---3------3---3------2---2------------------------|

         Em7      E7m        A6    Am6 A6
E|------------------------2---2---2--2----------------|
B|---3---3------3---3-----2---2---1--0----------------|
E|---0---0------0---0----2---2----2--2----------------|
D|--2---2--2---2---2----0---0-----0--0----------------|
A|-2---2------0---0-----------------------------------|
E|----------------------------------------------------|

Gm7                  A7/G                        F#m7    Am9/B   B7
Chuun gyeoul achimdo jogeum weroun jeonyeokdo urin yeogi hamkkera
 Em7               E7m              A6
Eodumeun neoran bicheuro bakkwieo tonight 
                   Am6 A6
mideul su eomneun gijeok


[Refrão]
        G7M      F#m7     Em7  E7m     A6  Em7 F#m7
E|------------------------------------2-3-5-----------|
B|---3---3----2---2----3-----3-------2----------------|
E|---4---4----2---2----0-----0------2-----------------|
D|--4---4----2---2----2--2--2--2---0------------------|
A|-------------------2-----0--------------------------|
E|-3---3----2---2-------------------------------------|

        G7M     F#7    BbM5-    E4/B   B7
E|----------------------------------------------------|
B|---3---3------------2------5---5----4---------------|
E|---4---4----3-------0------2---2----2---------------|
D|--4---4-----2------2--2---4---4--4--4---------------|
A|-----------4--4---1------2---2------2---------------|
E|-3---3----2-----------------------------------------|

        Em7         E7m
E|----------------------------------------------------|
B|---3---3------3---3---------------------------------|
E|---0---0------0---0---------------------------------|
D|--2---2--2---2---2----------------------------------|
A|-2---2------0---0-----------------------------------|
E|----------------------------------------------------|

Gm7
Oneul neoreul kkok ankko 
F#m7
Giving you my heart and soul
Em7        E7m        A6   Em7 F#m7
Neon salme jeonbuya For life
G7M
Dashi taeeonandaedo
F#7             BbM5-       E4/B  B7
Nan neo animyeon an dwel iyu

       Em7           E7m
Cheon gaeye maldo bujokal tteutae For life

[Interlude]

     D   Dm7  D7              Gadd9       Gm7M
E|-2---2----2------2--3--5---5-----3-----2-----0------|
B|-3---2----1----1-----------3-----3-----3-----3------|
E|-2---2----2--2-------------4-----4-----3-----3------|
D|-0---0----0-----------------------------------------|
A|----------------------------------------------------|
E|---------------------------3-----3-----3-----3------|

[Verso 3]

     D   Dm7  D7              Gadd9       Gm7M
E|-2---2----2------2--3--5---5-----3-----2-----0------|
B|-3---2----1----1-----------3-----3-----3-----3------|
E|-2---2----2--2-------------4-----4-----3-----3------|
D|-0---0----0-----------------------------------------|
A|----------------------------------------------------|
E|---------------------------3-----3-----3-----3------|

D     Dm7           D7                 Gadd9        Gm7M
Jichigo himdeul ttae gidaego shipeun keun saram dwae bolkke

[Verso 4]

     D   Dm7    C#7    F#7  Bm7  F#m E
E|-2---2----------------------------------------------|
B|-3---2--2-----5----------3--------------------------|
E|-2---2---2-----4---3------2--2-1--------------------|
D|-0-----------5------2---4----4-2--------------------|
A|------------4-----4----2----------------------------|
E|-----------------2----------------------------------|

D       Dm7                C#7     F#7    Bm7                  F#m  E
Eoril jjeok kkumkkudeon seonmul gadeukan christmas tree gateun sarami

[Pre-Refrão]

        G7M        A7/G      F#m7     Am9/B  B7
E|----------------------------------------------------|
B|---3---3------2---2------2---2-----1--0-------------|
E|---4---4------2---2------2---2-----2--2-------------|
D|--4---4--4---2---2--2---2---2--2---1--1-------------|
A|-----------------------------------2--2-------------|
E|-3---3------3---3------2---2------------------------|

         Em7      E7m        A6    Am6 A6
E|------------------------2---2---2--2----------------|
B|---3---3------3---3-----2---2---1--0----------------|
E|---0---0------0---0----2---2----2--2----------------|
D|--2---2--2---2---2----0---0-----0--0----------------|
A|-2---2------0---0-----------------------------------|
E|----------------------------------------------------|

G7M                  A7/G              F#m7            Am9/B  B7
Salmiran gin hamoni geu ane nogeun uriga deo areumdaweojige
     Em7                                   E7m           A6
Chimmugeun neoran (chimmugeun neoran) noraero bakkwieo Tonight (noraero Tonight)
                        Am6 A6
Nan pyeongsaeng deutgo shipeo

[Refrão]

        G7M      F#m7     Em7  E7m     A6  Em7 F#m7
E|------------------------------------2-3-5-----------|
B|---3---3----2---2----3-----3-------2----------------|
E|---4---4----2---2----0-----0------2-----------------|
D|--4---4----2---2----2--2--2--2---0------------------|
A|-------------------2-----0--------------------------|
E|-3---3----2---2-------------------------------------|

        G7M     F#7    BbM5-    E4/B   B7
E|----------------------------------------------------|
B|---3---3------------2------5---5----4---------------|
E|---4---4----3-------0------2---2----2---------------|
D|--4---4-----2------2--2---4---4--4--4---------------|
A|-----------4--4---1------2---2------2---------------|
E|-3---3----2-----------------------------------------|

        Em7         E7m
E|----------------------------------------------------|
B|---3---3------3---3---------------------------------|
E|---0---0------0---0---------------------------------|
D|--2---2--2---2---2----------------------------------|
A|-2---2------0---0-----------------------------------|
E|----------------------------------------------------|

Gm7
Oneul neoreul kkok ankko 
F#m7
Giving you my heart and soul
Em7        E7m        A6   Em7 F#m7
Neon salme jeonbuya For life
G7M
Dashi taeeonandaedo
F#7             BbM5-       E4/B  B7
Nan neo animyeon an dwel iyu

      Em7                E7m
Pyeongsaengeul neoman barabogopa

[Ponte]

        Bb7M       Bb9          Am7         F/A
E|---------------------------------------1---1--------|
B|---3---3-------1---1-------1---1-------1---1--------|
E|---2---2--2----0---0-------0---0------2---2--2------|
D|--3---3--3----0---0--0----2---2--2---0---0----------|
A|-1---1-------1---1-------0---0----------------------|
E|----------------------------------------------------|

        Bb7M        Bb9            E7m
E|----------------------------------------------------|
B|---3---3-------1---1-------3---3--3-3-3-3-3---------|
E|---2---2--2----0---0-------0---0--0-0-0-0-0---------|
D|--3---3--3----0---0--0----2---2---2-2-2-2-2---------|
A|-1---1-------1---1-------0---0----0-0-0-0-0---------|
E|----------------------------------------------------|

Bb7M               Bb9
Modeun ge shwipjin anketji
Am7                    F/A
Jikyeo jul kkeoya For life
Bb7M           Bb9
This love, this love
E|7-
Yeongweonhi kkeunnaji anha

[Ultimo Refrão]

        G7M      F#m7     Em7  E7m     A6  Em7 F#m7
E|------------------------------------2-3-5-----------|
B|-3--3-3---2--2-2-----3-----3-------2----------------|
E|-4--4-4---2--2-2-----0-----0------2-----------------|
D|-4--4-4---2--2-2----2--2--2--2---0------------------|
A|-------------------2-----0--------------------------|
E|-3--3-3---2--2-2------------------------------------|

        G7M      F#7    BbM5-   E4/B   B7  D3- E3-
E|----------------------------------------------------|
B|---3---3------------2------5---5----4--5-7----------|
E|---4---4----3-------0------2---2----2---------------|
D|--4---4-----2------2--2---4---4--4--4---------------|
A|-----------4--4---1------2---2------2--4-6----------|
E|-3---3----2-----------------------------------------|

   Gm7
Oh, never gonna let you go
  F#m7
Giving you my heart and soul
  Em7      E7m          A6  Em7 F#m7
Neon salme jeonbuya For life
  Gm7
Oh dashi taeeonandaedo
    F#7         BbM5-    E4/B  B7  D3-  E3-
Nan neo animyeon an dwel iyu

[Última Parte]

        Em7      E7m  E6
E|----------------------------------------------------|
B|---3---3------3---2---------------------------------|
E|---0---0------0---0---------------------------------| (2x)
D|--2---2--2---2---2----------------------------------|
A|-2---2------0---0-----------------------------------|
E|----------------------------------------------------|

Em7                     E7m     E6
Pyeongsaengeul neoman barabogopa
     Em7                E7m     E6
Na pyeongsaeng neoman barabogopa

For life

[Intro novamente e fim]

     D   Dm7  D7              Gadd9       Gm7M          Dm7
E|-2---2----2------2--3--5---5-----3-----2-----0---------2--5---|
B|-3---2----1----1-----------3-----3-----3-----3-3------2-------|
E|-2---2----2--2-------------4-----4-----3-----3--3----2--------|
D|-0---0----0--------------------------------------0--0---------|
A|--------------------------------------------------------------|
E|---------------------------3-----3-----3-----3----------------|
Composição de Kenzie
Colaboração e revisão:
  • Bea Park
1.695 exibições
    • ½ Tom
    • A
    • Bb
    • B
    • C
    • Db
    • D
    • Eb
    • E
    • F
    • F#
    • G
    • Ab
  • Adicionar à lista

    0 comentários

    Mostrar mais comentários

    Conseguiu tocar?

    0 Tocaram 0 Ainda não

    Grave um vídeo tocando For Life e mande pra gente!

    00:00 / 00:00
    outros vídeos desta música
    repetir qualidade Automático
    Outros vídeos desta música
    00:00 / 00:00
    Automático

    Cifra Club Pro

    Aproveite o Cifra Club com benefícios exclusivos e sem anúncios
    7 dias grátis
    Cifra Club Pro
    Aproveite o Cifra Club com benefícios exclusivos e sem anúncios
    7 dias grátis
    OK