Cifra Club

Color Me Blind

Extreme

Cifra: Principal (violão e guitarra)
Selo Cifra Club: esta cifra foi revisada para atender aos critérios oficiais da nossa Equipe de Qualidade.
tom: Dm
          Dm/A      Dm6/A    Dm/A    A
    

(phaser off)N.C.
Guitar 1    ~~~~~ PM-----------------|  ~~~                ~~~        ~~~       AH~~
E|----------------------------------------------------------------------------------------|
B|----------------------------------------------------------------------------------------|
G|----------------------------------------------------------------------------------------|
D|-------------------------------------3------------------3----------3----------3---------|
A|-----------------------------------------5------------------5----------5----------5-----|
E|---------3------0--1--2--3--0--1--2---------3-----3--x---------3----------3----------3--|

        AH~~~ PM----------------|   ~~~              ~~~            ~~                       .    AH  PM
E|-------------------------------------------------------------------------------------------------------|
B|-------------------------------------------------------------------------------------------------------|
G|-------------------------------------------------------------------------------------------------------|
D|---------------------------------3----------------3--------------3---------7-9--10--9--7---------------|
A|-------------------------------------5----------------5-------------5---------------------10---10\-----|
E|--3---3----0--1--2--3--0--1--2----------3-3--x-x---------3--x-x--------3----------------------------0--|


[Verse]

    G5                           D           G5        A5
                        .  .                      PM                             PM
E|------------------------------------------------------------------------------------|
B|--8---------------------------7------------8----------------------------------------|
G|--7------------------7--7-----7------------7---------2------------------------------|
D|--5------------------5--5--x--7------------5---------2------------------------------|
A|--5---------------------------5------------5---------0------------------------------|
E|------------------------------------------------x------------------------------x----|


     D5                         Dsus4    D5          Em7                 Em9
                        .  . PM       PM        PM----------------------|                   NH \1/2/
E|-----------------------------------------------------------------------7-------------------------|
B|------------------------------8-------10--------------8-------8--------7-------------------------|
G|--7---------------------------7-------7---------------7----------7-----7--------------9---7-(7)--|
D|--7------------------7--7--0-------7----------9-9-------------------9-------------7/9---9--------|
A|--5------------------5--5--------------------------7-------7-------------------------------------|
E|-------------------------------------------------------------------------------------------------|


        Em7                     D/A          Dsus4 
        PM---|   PM---|   PM---|   PM    PM--|   ~~~~~~
E|---------------------------------------------------------|
B|------------8--------8--------7-----7------8--8---(8)\---|
G|------------7--------7--------7-----7------7--7---(7)\---|
D|---------------------------------------------------------|
A|---------------------------------0-----0-0---------------|
E|--7\--0--0-----0--0-----0--0-----------------------------|


    A5                                             D5              D        Dsus4   D5
       PM---------|    AH  \1/2  /  AH~~~       PM-----|    PM---|   PM---|      PM
E|------------------------------------------------------------------------------------------|
B|----------------------------------------------------------------7---------8------10-------|
G|--2--------------2---2--(2)-------2--------------------7--------7--7------7------7--------|
D|--2-----2--------2-------------------------------------7--------------7--------0----------|
A|--0--0--0--------0----------------------------0--5--5-----5--5----------------------------|
E|-----------0--0-------------------------/17\----------------------------------------------|


    Em7                  Em9
    PM------------------|
E|--------------------7--7----------------------|
B|------8-----------8----7----------------------|
G|-----------7-----------7----------------------|
D|--9-----------9-------------------------------|
A|----------------------------------------0--2--|
E|-------------------------------10\---3--------|


[Pre-Chorus]

    C5(9)                               G/B
    PM------|                           PM------|                              PM
E|-----------3-----------------------------------3---------------------------------|
B|-----------3-----------------------------------3---------------------------------|
G|--------0--0-----------------------------------0---------------------------------|
D|--------------------------------------------0------------------------------------|
A|--3--3--------------------------------2--2-----------------------------------0---|
E|---------------------------------------------------------------------------------|


    Gm/Bb                               F#7
    PM------|                        PM              ~~~~            PM--|
E|-----------3------------------------------0-------------------------------|
B|-----------3----------------------------------0---------------------------|
G|-----------0--------------------------------------3-----------------------|
D|--------0-----------------------------------------------------------------|
A|--1--1--------------------------------------------------------------------|
E|-----------------------------------0--2----------------------------0-0----|


    G5           A5

E|--------------------|
B|--------------------|
G|---------------2----|
D|--5------------2----|
A|--5------------0----|
E|--3-----------------|


[Chorus]

     D5        Dsus4  D5   Dsus4    D     Dsus4   F5                        F      Em7
             PM               PM---|   PM         PM---|      PM     PM---| .         PM---| .
E|------------------------------------------------------------------------------------------7---------|
B|--------------8----10----8--------7-----8-7------------------------------10------8--------8-----8---|
G|--7-----------7----7-----7--------7-----7----7--------10-------10--------10------7--------7-----7---|
D|--7-------------------------0--0-----0----------------10-------10--------10------9--------------9---|
A|--5--------0------------------------------------8--8--8-----8------8--8----------7--7--7-----7------|
E|----------------------------------------------------------------------------------------------------|

   
    D5           Dsus4  D5  Dsus4    D   Dsus4   F5                      F      A5       Am7
    PM---|   PM--|             PM---|   PM       PM---|    PM     PM---|    PM--|  PM---| ~~~~
E|--------------------------------------------------------------------------------------------|
B|----------------8----10---8--------7----8-7---------------------------10--------------------|
G|--------7-------7----7----7--------7----7---7--------10-----10--------10------2--------5----|
D|--------7--------------------0--0-----0--------------10-----10--------10------2--------5----|
A|--5--5--5--0-0---------------------------------8--8--8---8------8--8------0-0-0--0--0-------|
E|--------------------------------------------------------------------------------------------|


[Verse 2]

    N.C.
     ~~~~ PM-----------------| AH~                ~~~          AH~~
E|------------------------------------------------------------------------------|
B|------------------------------------------------------------------------------|
G|------------------------------------------------------------------------------|
D|-----------------------------3-----------------3-------------3----------------|
A|---------------------------------5-----------------5-------------5------------|
E|--3-----0--1--2--3--0--1--2---------3---3-x-x---------3-x-x---------3--x-x----|

    light PM-------------------|                                    1         1  NH----------------|
E|------------------------------------------------------------------------------12------------------|
B|------------------------------------------------------12_13_15-15^--(15)-15^------12--------------|
G|---------------------------------------------11_12_14---------------------------------12----------|
D|--10_12_10-9_10_9----9---------------9_10_12----------------------------------------------12------|
A|------------------12---10-12-9_10_12----------------------------------------------------------12--|
E|--------------------------------------------------------------------------------------------------|

    
                   D5  A5                                   D                   G     A
    NH---------|                                                ~~~~~~                \/
E|----------------------------------------------------------------------------------------|
B|-------------------------------------------------------------7---------------8-----10---|
G|------12---------7\--2--2----------------------------2----------------------------------|
D|--12------12-----7\--2--2--------------------------------/7-------------7/9--9-----11---|
A|---------------------0--0---------------------------------------------------------------|
E|----------------------------------------------------------------------------------------|


    Em7                  Em9                                                                    A5
    PM----------------|                                             1        1   1   1
E|------------------7---7----------------------------------------17^---19-19--19--19---(19)\----5--|
B|------8---------------7------------------------------------15-----------22^-22^-22^--(22)\----5--|
G|----------7-----------7----------------------------14__16-------------------------------------2--|
D|--------------9--------------------------------12---------------------------------------------2--|
A|--7---------------------------------5-----/14-------------------------------------------------0--|
E|--------------------------------/7-----7----------------------------------------|

 
                                                        D5

E|-(5)--------------------------------------------------------------------------|
B|-(5)--------------------------------------------------3---------7_6_7-(7)\----|
G|-(2)--------------------------------------------------2-----------------------|
D|-(2)--------------------------------------------------0------/7---------------|
A|-(0)--------------------------------------------------------------------------|
E|------------------------------------------------------------------------------|

 
    G              A                Em7                    Em9
       PM---|        PM----| AH      PM------------------|        PM-----------|
E|---------------------------------------------7-----------7---------------------|
B|-----------8\-------------10\--------8-----------8-------7---------------------|
G|-----------------------------------------7---------------7---------------------|
D|--x--7-8-9------x-9-10-11---------------------------------------2-2------------|
A|----------------------------------7------------------7------------------0--2---|
E|---------------------------------------------------------------------3---------|

[Pre-Chorus]

    C5(9)                               G/B
    PM------|                           PM------|                              PM
E|-----------3-----------------------------------3---------------------------------|
B|-----------3-----------------------------------3---------------------------------|
G|--------0--0-----------------------------------0---------------------------------|
D|--------------------------------------------0------------------------------------|
A|--3--3--------------------------------2--2-----------------------------------0---|
E|---------------------------------------------------------------------------------|


    Gm/Bb                               F#7
    PM------|                        PM              ~~~~            PM--|
E|-----------3------------------------------0-------------------------------|
B|-----------3----------------------------------0---------------------------|
G|-----------0--------------------------------------3-----------------------|
D|--------0-----------------------------------------------------------------|
A|--1--1--------------------------------------------------------------------|
E|-----------------------------------0--2----------------------------0-0----|


    G5           A5

E|--------------------|
B|--------------------|
G|---------------2----|
D|--5------------2----|
A|--5------------0----|
E|--3-----------------|


[Chorus]

     D5        Dsus4  D5   Dsus4    D     Dsus4   F5                        F      Em7
             PM               PM---|   PM         PM---|      PM     PM---| .         PM---| .
E|------------------------------------------------------------------------------------------7---------|
B|--------------8----10----8--------7-----8-7------------------------------10------8--------8-----8---|
G|--7-----------7----7-----7--------7-----7----7--------10-------10--------10------7--------7-----7---|
D|--7-------------------------0--0-----0----------------10-------10--------10------9--------------9---|
A|--5--------0------------------------------------8--8--8-----8------8--8----------7--7--7-----7------|
E|----------------------------------------------------------------------------------------------------|

   
    D5           Dsus4  D5  Dsus4    D   Dsus4   F5                      F      A5       Am7
    PM---|   PM--|             PM---|   PM       PM---|    PM     PM---|    PM--|  PM---| ~~~~
E|--------------------------------------------------------------------------------------------|
B|----------------8----10---8--------7----8-7---------------------------10--------------------|
G|--------7-------7----7----7--------7----7---7--------10-----10--------10------2--------5----|
D|--------7--------------------0--0-----0--------------10-----10--------10------2--------5----|
A|--5--5--5--0-0---------------------------------8--8--8---8------8--8------0-0-0--0--0-------|
E|--------------------------------------------------------------------------------------------|


     D5        Dsus4  D5   Dsus4    D     Dsus4   F5                        F      Em7
             PM               PM---|   PM         PM---|      PM     PM---| .         PM---| .
E|------------------------------------------------------------------------------------------7---------|
B|--------------8----10----8--------7-----8-7------------------------------10------8--------8-----8---|
G|--7-----------7----7-----7--------7-----7----7--------10-------10--------10------7--------7-----7---|
D|--7-------------------------0--0-----0----------------10-------10--------10------9--------------9---|
A|--5--------0------------------------------------8--8--8-----8------8--8----------7--7--7-----7------|
E|----------------------------------------------------------------------------------------------------|

   
    D5           Dsus4  D5  Dsus4    D   Dsus4   F5                      F      
    PM---|   PM--|             PM---|   PM       PM---|    PM     PM---|    
E|-----------------------------------------------------------------------------------|
B|----------------8----10---8--------7----8-7---------------------------10-----------|
G|--------7-------7----7----7--------7----7---7--------10-----10--------10-----------|
D|--------7--------------------0--0-----0--------------10-----10--------10-----------|
A|--5--5--5--0-0---------------------------------8--8--8---8------8--8---------------|
E|-----------------------------------------------------------------------------------|


[Bridge]

     Dm                             A                                   Dm

E|--1------------------------------0-----------------------------------1--------|
B|--3------------------------------2-----------------------------------3--------|
G|--2------------------------------2-----------------------------------2--------|
D|--0------------------------------2-----------------------------------0--------|
A|---------------------------------0--------------------------------------------|
E|------------------------------------------------------------------------------|

    
                                   A5                                       E5
  Guitar 2                                                                     1
E|------------------------------------------------------------------------------|
B|--------------------------------------------------------------------------15--|
G|--------------------------------------------------------------------------14^-|
D|------------------------------------------------------------------------------|
A|------------------------------------------------------------------------------|
E|------------------------------------------------------------------------------|
E|PM---------------|
B|-(1)--------------------------------------------------------------------------|
G|-(3)--------------------------------------------------------------------------|
D|-(2)-----------------------------2--2--2--2--2--2--2--2--2--------------------|
A|-(0)-----------------------------2--2--2--2--2--2--2--2--2--------------------|
E|---------------------------------0--0--0--0--0--0--0--0--0------x\x\x\----2---|
E|----------------------------------------------------------------x\x\x\----0---|


[Guitar Solo]

      F#5 G5 E5          C5  D5   E5                 F#5     G5   E5     C5    D5          E5
            1             1        1              T        T        T        T        T
E|---------------------22^------15^--(15)_12_16--22_16_17-22_17/19-22_19_17-22_17_18-22_16_12_17___|
B|-(15)--15----------------------------------------------------------------------------------------|
G|-(14)--14^--(14)p12------------------------------------------------------------------------------|
D|-------------------------------------------------------------------------------------------------|
A|-------------------------------------------------------------------------------------------------|
E|-------------------------------------------------------------------------------------------------|
  |     .   .  .           .   .    .                   .     .     .     .     .           . 
E|-------------------------------------------------------------------------------------------------|
B|-------------------------------------------------------------------------------------------------|
G|-------------------------------------------------------------------------------------------------|
D|------------------------5---7------------------------------------------5-----7-------------------|
A|-----4---5--------------3---5----2-------------------4-----5-----------3-----5-----------2-------|
E|-----2---3--0--------------------0-------------x--x--2-----3-----0-----------------------0-------|
 
      
          F#5    G5   E5     C5     D5    E5               F#5          G5      E5       A5
            T      ~~~~                                                                    T
E|___10_12-17_10_12----(12)\--15-16----15----------------------------------15_16_15------------------|
B|----------------------------------17----16-17-------17----------------17----------17----17_12_11_9-|
G|----------------------------------------------15-16----16-15_13_15/16----------------16------------|
D|---------------------------------------------------------------------------------------------------|
A|---------------------------------------------------------------------------------------------------|
E|---------------------------------------------------------------------------------------------------|
  |         .     .     .      .     .     .                 .           .        . 
E|---------------------------------------------------------------------------------------------------|
B|---------------------------------------------------------------------------------------------------|
G|---------------------------------------------------------------------------------------------------|
D|----------------------------5-----7----------------------------------------------------------------|
A|---------4-----5------------3-----5-----2-----------------4-----------5----------------/7----------|
E|---------2-----3-----0------------------0--------x--x-----2-----------3--------0-------/5----------|


     G5               E5     F#5    G5    C5 D5  E5      F#5  G5 E5      C5    D5          E5 
                              ~~~~~~~~~~  AH                  1           1
E|------------------------------------------------15---------------------------------------------|
B|------_9_11_12_11_9---_10_9----------------15-------15--------------------12-15----12----------|
G|--_11--------------_10-----------------14----------------14^-(14)_13-14^--------14----15_14_12-|
D|-----------------------------------------------------------------------------------------------|
A|-----------------------------------------------------------------------------------------------|
E|-----------------------------------------------------------------------------------------------|
  |   .                .       .     .     .  .   .       .   .  .        .     .
E|-----------------------------------------------------------------------------------------------|
B|-----------------------------------------------------------------------------------------------|
G|-----------------------------------------------------------------------------------------------|
D|----------------------------------------5--7---------------------------5-----7-----------------|
A|---5----------------2-------4-----5-----3--5---2-------4---5--2--------3-----5-----------2-----|
E|---3----------------0-------2-----3------------0---x-x-2---3--0--------------------------0-----|

  
   (E5)       F#5   G5    E5    C5    D5    E5                  F#5    G5   E5    A5    G5
             1                                                                    AH 1  AH~~~~ 
E|-------------------------------------------------------------------------------------------|
B|------------------------14-----------------------------------------------------------------|
G|--14-12-14^--(14)p12----------12-13-------12-----------------------------------------------|
D|---------------------14----14-------14-12----14_12----12----------------------9------------|
A|---------------------------------------------------14----13_14----14-12_10-12---10^--10----|
E|-------------------------------------------------------------------------------------------|
  |             .    .     .     .     .     .                   .      .     .     .   .
E|-------------------------------------------------------------------------------------------|
B|-------------------------------------------------------------------------------------------|
G|-------------------------------------------------------------------------------------------|
D|------------------------------5-----7------------------------------------------------------|
A|-(2)---------4----5-----------3-----5-----2-------------------4------5----------/7---5-----|
E|-(0)---------2----3-----0-----------------0-------------x-----2------3-----0----/5---3-----|


    A5        B5  C5 A5  F5    G5      A5         B5 C5    A5  F5  G5     A5
         PM---| AH----|                     1/2     1/2              1
E|-------------------------------------5---7^------7^--(7)_5---5-5---------------|
B|---------------------------------------5-------------------8-----8^------------|
G|-------------------------------------------------------------------------------|
D|------10-10--10--10--10--10----------------------------------------------------|
A|-/12-------------------------12_10---------------------------------------------|
E|-------------------------------------------------------------------------------|
  |           .   .   .   .     .       .          .  .     .   .   .
E|-------------------------------------------------------------------------------|
B|-------------------------------------------------------------------------------|
G|-----------------------5-----7-------------------------------5---7-------------|
D|--2--------4---5-------3-----5-------2----------4--5---------3---5------2------|
A|--0--------2---3---0-----------------0----x-x-x-2--3-----0--------------0------|
E|-------------------------------------------------------------------------------|


     (A5) B5     C5  A5   F5   G5  A5            B5  C5 A5 D5  C5          E5  F#5 G5
                                          2            1                   1
E|---------------8-8---------8------------------------------------------------------|
B|--(8)--------------10---10---10---------------------------------------------------|
G|-----------/10--------9----------14--17^----------17^--17-17-14----17-14^---------|
D|----------------------------------------------------------------14----------------|
A|----------------------------------------------------------------------------------|
E|----------------------------------------------------------------------------------|
  |       .       .   .    .    .   .             .   . .  .    .                . .
E|----------------------------------------------------------------------------------|
B|----------------------------------------------------------------------------------|
G|------------------------5----7----------------------------------------------------|
D|-(2)---4-------5--------3----5---2-------------4---5---/7----5--------------------|
A|-(0)---2-------3---0-------------0-----x-x-x---2---3-0-/5----3-----------2----4-5-|
E|-------------------------------------------------------------------------0----2-3-|


   E5 C5 D5 E5   F#5 G5 E5  C5 D5        E5          F#5      G5 E5   C5   D5    E5
       1            1                                                                      1
E|---------------------------------------------------15------------------------------------------|
B|--12-----------12-------------12----15----15_17_15-------15------------------------------------|
G|--14^----------14^-----(14)------14----15-------------------16-14--14--------------------------|
D|------------------------------------------------------16--------------------17-14--14----------|
A|----------------------------------------------------------------------16_17-----------10^------|
E|-----------------------------------------------------------------------------------------------|
  | .  .  .  .     .  .  .  .  .                      .        .  .    .    .     .
E|-----------------------------------------------------------------------------------------------|
B|-----------------------------------------------------------------------------------------------|
G|-----------------------------------------------------------------------------------------------|
D|----5--7-----------------5--7---------------------------------------5----7---------------------|
A|----3--5--2-----4--5-----3--5----------2-----------4--------5-------3----5-----2---------------|
E|-0--------0-x-x-2--3--0----------------0-----------2--------3--0---------------0------x----x-x-|


  F#5 

E|-------------------------12----------12_14_15--|
B|-------------------12_15----12_14_15-----------|
G|----------12-12_15-----------------------------|
D|-12-12-14--------------------------------------|
A|-----------------------------------------------|
E|-----------------------------------------------|
  | .     .     .     .        .     
E|-----------------------------------------------|
B|-----------------------------------------------|
G|-----------------------------------------------|
D|-----------------------------------------------|
A|-4-----5-----------4--------5-----0-----2------|
E|-2-----3-----0-----2--------3------------------|


[Pre-Chorus]

   C5(9)                               G/B
    PM------|                           PM------|                              PM
E|-----------3-----------------------------------3---------------------------------|
B|-----------3-----------------------------------3---------------------------------|
G|--------0--0-----------------------------------0---------------------------------|
D|--------------------------------------------0------------------------------------| < Guitar 1 (phaser ON)
A|--3--3--------------------------------2--2-----------------------------------0---|
E|---------------------------------------------------------------------------------|
  |  grad.bend--1/2 hold bend-| 1/2          1                   ~~~~~~~~~~~~~~~~~
E|--14^-----------------14-14-14^-(14)-12-----------------14-----------------------|
B|----------------------------------------15^------------------15------------------|
G|---------------------------------------------------------------------------------|
D|---------------------------------------------------------------------------------| < Guitar 2
A|---------------------------------------------------------------------------------|
E|---------------------------------------------------------------------------------|


    Gm/Bb                               F#7
    PM------|                        PM------|
E|-----------3--------------------------------0-------------------------|
B|-----------3----------------------------------------0-----------------|
G|-----------0--------------------------------------------3-------------| (Phaser OFF)
D|--------0--------------------------------4----------------------------|
A|--1--1--------------------------------4-------------------------------|
E|-----------------------------------2----------------------------------|
E|1/2| hold bend-----|  ~~~~~~~~~
B|----------15----------------------------------------------------------|
G|--14^----------14------14---------------------------------------------|
D|----------------------------------------------------------------------| Guitar 2 out
A|----------------------------------------------------------------------|
E|----------------------------------------------------------------------|
E|----------------------------------------------------------------------|


  C5(9)                               G/B
    PM------|                           PM------|                              PM
E|-----------3-----------------------------------3---------------------------------|
B|-----------3-----------------------------------3---------------------------------|
G|--------0--0-----------------------------------0---------------------------------|
D|--------------------------------------------0------------------------------------|
A|--3--3--------------------------------2--2-----------------------------------0---|
E|---------------------------------------------------------------------------------|


    Gm/Bb                              (F#5)                              (G5)        (A5)
    PM------|                             1       1       1           ~~~~
E|-----------3--------------------------------2-------------------------------------------|
B|-----------3------------------------------2---5^--5-2-------------------8-----------10--|
G|-----------0--------------------------4^--------------4^-(4)_2---4-2----7-----------9---|
D|--------0------------------------------------------------------4-----------9_7-9/11-----|
A|--1--1----------------------------------------------------------------------------------|
E|----------------------------------------------------------------------------------------|


[Chorus]

     D5        Dsus4  D5   Dsus4    D     Dsus4   F5                        F      Em7
             PM               PM---|   PM         PM---|      PM     PM---| .         PM---| .
E|------------------------------------------------------------------------------------------7---------|
B|--------------8----10----8--------7-----8-7------------------------------10------8--------8-----8---|
G|--7-----------7----7-----7--------7-----7----7--------10-------10--------10------7--------7-----7---|
D|--7-------------------------0--0-----0----------------10-------10--------10------9--------------9---|
A|--5--------0------------------------------------8--8--8-----8------8--8----------7--7--7-----7------|
E|----------------------------------------------------------------------------------------------------|

   
    D5           Dsus4  D5  Dsus4    D   Dsus4   F5                      F      A5       Am7
    PM---|   PM--|             PM---|   PM       PM---|    PM     PM---|    PM--|  PM---| ~~~~
E|--------------------------------------------------------------------------------------------|
B|----------------8----10---8--------7----8-7---------------------------10--------------------|
G|--------7-------7----7----7--------7----7---7--------10-----10--------10------2--------5----|
D|--------7--------------------0--0-----0--------------10-----10--------10------2--------5----|
A|--5--5--5--0-0---------------------------------8--8--8---8------8--8------0-0-0--0--0-------|
E|--------------------------------------------------------------------------------------------|


   D  Dsus4 D5 Dsus4 D                  Dsus4    F5                      F     Em7
                            PM---|   PM          PM---|    PM     PM---|
E|-----------------------------------------------------------------------------7-----------|
B|-7----8----10--8--7----7--------7-----8-7-----------------------------10---------8-------|
G|-7----7----7---7--7----7--------7-----7---7----------10-----10--------10-------------7---|
D|-7--x-7----7---7--7----7--0--0-----0-----------------10-----10--------10-----------------|
A|-----------------------------------------------8--8--8---8------8--8---------------------|
E|-----------------------------------------------------------------------------------------|


     C D    Dsus4 D5  Dsus4     D    Dsus4     F5
           PM              PM--|   PM                                       1 1/2~~~~~
E|------------------------------------------------------------------------------------|
B|--5/7------8---10---8---------7-----8--7---------------------------17----17^--------|
G|--5/7------7---7----7---------7-----7----7---10----------------/14----14------------|
D|--5/7---0---------------0--0-----0-----------10-------------------------------------|
A|---------------------------------------------8--------------------------------------|
E|------------------------------------------------------------------------------------|


[Outro]

   N.C.
        AH~~ PM------------------|   ~~           ~~~          AH~~
E|------------------------------------------------------------------|
B|------------------------------------------------------------------|
G|------------------------------------------------------------------|
D|---------------------------------3-------------3------------------|
A|-------------------------------------5-------------5--------------|
E|---0--3----0--1--2--3--0--1--2----------3--x-x--------3--3---3----|


   N.C.

E|-----------------------------------------------------------------------------------|
B|-----------------------------------------------------------------------------------|
G|-----------------------------------------------------------------------------------|
D|--------------------------------------------------2--3--4--5--4--3--2--------------|
A|-----------------------------------------------------------------------5--4--3--2--|
E|--0--1--2--3--0--1--2--3--0--1--2--3--0--1--2--3-----------------------------------|


    Bb      Bb/A  Bb/Ab
         PM                                    feedback
E|---------------------------------------------------------------------------|
B|--3-------3-----3------------------------------x---------------------------|
G|--3-------3-----3------------------------------x---------------------------| Fade out
D|--3-------3-----3------------------------------x---------------------------|
A|--1----1--0------------------------------------x---------------------------|
E|----------------4------------------------------x---------------------------|


***************************************************

| x   Dead note
| /   Slide up
| \   Slide down
| ^   Bend (length above staff)
|(3)  Ghost note or release bend
| _   Hammer-on or pull-off
| ~   Vibrato
| T   Right-hand tap
| PM  Palm-muting
| NH  Natural harmonic
| AH  Artificial harmonic
| .   Staccato
| x\  Pick slide
00:00 / 00:00
Outros vídeos desta música
Repetir
Outros vídeos desta música
40 exibições
    • ½ Tom
    • Am
    • Bbm
    • Bm
    • Cm
    • C#m
    • Dm
    • Ebm
    • Em
    • Fm
    • F#m
    • Gm
    • G#m
  • Adicionar à lista

Afinação da cifra

Afinador online

    0 comentários

    Ver todos os comentários

    Entre para o Cifra Club PRO

    Tenha acesso a benefícios exclusivos no App e no Site

    • Chega de anúncios

    • Mais recursos no app do Afinador

    • Atendimento Prioritário

    • Aumente seu limite de lista

    • Ajude a produzir mais conteúdo

    00:00 / 00:00

    Cifra Club Pro

    Aproveite o Cifra Club com benefícios exclusivos e sem anúncios
    Cifra Club Pro
    Aproveite o Cifra Club com benefícios exclusivos e sem anúncios
    OK