Cifra Club

Hole Hearted

Extreme

Cifra: Principal (violão e guitarra)
tom: Ab (forma dos acordes no tom de A) Afinação: Eb Ab Db Gb Bb Eb
[Intro]

    D     E/D
E|-2--2--4---------------------|
B|-3--3--5---------------------|
G|-2--2--4---------------------|
D|-0--0--0---------------------|
A|-----------------------------|
E|-----------------------------|

    D     E/D
E|-2--2--4-------4-------------|
B|-3--3--5---------5-----------|
G|-2--2--4-----------4---------|
D|-0--0--0---------------------|
A|-----------------------------|
E|-----------------------------|

    D    E/D 
E|-2--2--4--4-4-4-4-4-4-------|
B|-3--3--5--5-5-5-5-5-5-------|
G|-2--2--4--4-4-4-4-4-4-------|
D|-0--0--0--0-0-0-0-0-0-------|
A|----------------------------|
E|----------------------------|

   D  E/D  F/D
E|-2---4----5--5-5-5-5-5-5-------|
B|-3---5----6--6-6-6-6-6-6-------|
G|-2---4----5--5-5-5-5-5-5-------|
D|-0---0----0--0-0-0-0-0-0-------|
A|-------------------------------|
E|-------------------------------|

(riff 1)

E|-x---x-x-x-x-x-------x-----x--x-----x--x--------|
B|-x---x-x-x-x-x-------x-----x--x-----x--x--------|
G|-x---x-x-x-x-x---2---5h6---7--5h6---7--5h6------|
D|-5h7-7-7-7-7-7---2---5-----7--5-----7--5--------|
A|-0---0-0-0-0-0-3---------0--------0--------0----|
E|-x---x-x-x-x-x----------------------------------|

(riff 2)

E|-x---x-x-x-x-x-------x--------------------------------|
B|-x---x-x-x-x-x-------3--------------------------------|
G|-x---x-x-x-x-x-------2-------0-----0-------------2----|
D|-5h7-7-7-7-7-7p5p0---0---------------------------2----|
A|-0---0-0-0-0-0-----3-----5h7---3h5---2h3-2h3p2--------|
E|-x---x-x-x-x-x---------------------------------3------|

(riff 1)
Life´s ambition occupy my time
(riff 2)
Priorities confuse the mind
(riff 1)
Happiness one step behind
(riff 2)
This inner peace I´ve yet to find

D      D7M(9)    D4(6)  D7M(9)  D
Rivers flow   in_to     the     sea
    A7   A7(4/6)        A7       A7(4/6)  A7
Yet even the sea is not so   full of       me
   D       D7M(9)    D4(6) D7M(9)   D
If I´m not blind why can't  I       see
        A7    A7(4/6)         A7      A7(4/6)  A7
That a circle can't fit where a square should   be

(riff 3)

     G        C9
E|-----------3-----|
B|-----------3-----|
G|-----------0-----|
D|-----------2-----|
A|-----0--2--3-----|
E|--3--------x-----|

          G 
There's a hole in my heart
(riff 3)      C9
     That can only be filled by you

( D  E/D   D  E/D )

         G
And this hole in my heart
(riff 3)       C9
     Can't be filled with the things I do

( D  E/D )

(riff 4)

   A4/7     A7(4)
E|--------------------------|
B|------3----------3--------|
G|----0---0------0----------|
D|-3---------3-2-----2p0----|
A|-----------------------3--|
E|--------------------------|

      (riff 4)
Hole    hearted

( D   E/D )

      (riff 4)
Hole    hearted

(riff 1) (riff 2)

(riff 1)
This heart of stone is where I hide
(riff 2)
These feet of clay keep warm inside
(riff 1)
Day by day less satisfied
(riff 2)
Not fade away before I die

D      D7M(9)    D4(6)  D7M(9)  D
Rivers flow   in_to     the     sea
    A7   A7(4/6)        A7       A7(4/6)  A7
Yet even the sea is not so   full of       me
   D       D7M(9)    D4(6) D7M(9)   D
If I´m not blind why can't  I       see
        A7    A7(4/6)         A7      A7(4/6)  A7
That a circle can't fit where a square should   be

          G 
There's a hole in my heart
(riff 3)      C9
     That can only be filled by you

(  D  E/D   D  E/D )

         G
And this hole in my heart
(riff 3)       C9
     Can't be filled with the things I do

(  D  D7M(9)  D4(6) )

  D        G 
There's a hole in my heart
(riff 3)      C9
     That can only be filled by you

( D  E/D  D  E/D )

              G
Should have known from the start
(riff 3)       C9
     I´d fall short with the things I do

( D  E/D )

      (riff 4)
Hole    hearted
      D      E/D
Hole hearted
      (riff 4)
Hole    hearted
      D      E/D
Hole hearted
      (riff 4)
Hole    hearted
      D    E/D (riff 4)  D
Hole hearteeeeeeeeeeee...ed

    D   E/D  F/D  D7M(9)  D7M(9)  D4(6)  D4(6)  A7  A7(4/6)  A7  
E|-2----4----5-----9-------5------7-------3----0------0-------0--|
B|-3----5----6-----10------5------8-------3----2------3-------5--|
G|-2----4----5-----9-------6------7-------4----0------0-------0--|
D|-0----0----0-----0-------0------0-------0----2------4-------5--|
A|-x----x----x-----x-------x------x-------x----0------0-------0--|
E|-x----x----x-----x-------x------x-------x----x------x-------x--|

     G  C9  A4/7  A7(4)
E|--3---3-----0--------0---|
B|--3---3-----3--------3---|
G|--0---0-----0--------0---|
D|--0---2-----3--------2---|
A|--2---3-----0--------0---|
E|--3---x-----x--------x---|
00:00 / 00:00
Outros vídeos desta música
Repetir
Outros vídeos desta música
Composição de Gary Cherone / Nuno Bettencourt
Colaboração e revisão:
  • Gabriel Chades
  • Leonardo Melo
46.009 exibições
    • ½ Tom
    • A
    • Bb
    • B
    • C
    • Db
    • D
    • Eb
    • E
    • F
    • F#
    • G
    • Ab
  • Adicionar à lista

    0 comentários

    Ver todos os comentários

    Conseguiu tocar?

    2 Tocaram 0 Ainda não

    Grave um vídeo tocando Hole Hearted e nos envie!

    Entre para oCifra Club PRO

    Tenha acesso a benefícios exclusivos no App e no Site

    • Chega de anúncios

    • Prioridade de compra em lançamentos

    • Mais recursos no app do Afinador

    • Atendimento Prioritário

    • Descontos nos produtos Cifra Club

    • Ajude a produzir mais conteúdo

    00:00 / 00:00

    Cifra Club Pro

    Aproveite o Cifra Club com benefícios exclusivos e sem anúncios
    Cifra Club Pro
    Aproveite o Cifra Club com benefícios exclusivos e sem anúncios
    OK