Cifra Club

Hole Hearted

Extreme

Cifra: Principal (violão e guitarra)
exibições 42.512
Tom: A
(afinação 1/2 tom abaixo Eb)

(intro)

|-2--2--2/4-------------------|
|-3--3--3/5-------------------|
|-2--2--2/4-------------------|
|-----------------------------|
|-----------------------------|
|-----------------------------|

|-2--2--2/4---4------4--------|
|-3--3--3/5-----5-----5-------|
|-2--2--2/4-------4----4------|
|-----------------------------|
|-----------------------------|
|-----------------------------|

(batida no mesmo esquema... só que sem o solinho)
|-2--2--2/4-4-4-4-4-4-4-------|
|-3--3--3/5-5-5-5-5-5-5-------|
|-2--2--2/4-4-4-4-4-4-4-------|
|-----------------------------|
|-----------------------------|
|-----------------------------|

|-2-2/4-4/5-5-5-5-5-5-5-------|
|-3-3/5-5/6-6-6-6-6-6-6-------|
|-2-2/4-4/5-5-5-5-5-5-5-------|
|-----------------------------|
|-----------------------------|
|-----------------------------|

(parte 1)
|-----------------2/5-7-0--5-7-0------|         |
|-----------------2/5-7-0--5-7-0------|         |
|-----------------2/5-7-0--5-7-0------|         |
|-2/7-7-7-7---2---2/5-7-0--5-7-0------|         |
|-----------3-------------------------|         |
|-------------------------------------|         |
                                                4x
|-------------------------------------|         |
|-------------------------------------|         |
|-------------------------------------|         |
|-2/7-7-7-7------------------------2--|         |
|-----------2/5---7-7-7--5-5--3-------|         |
|--------------------------------3----|         |

(parte 2)
|-2--2--2/9---9---9---7--7--2-2-2----|          |
|-3--3--3/10--10--10--8--8--2-2-2----|          |
|-2--2--2/9---9---9---7--7--3-3-3----|          |
|------------------------------------|          |
|------------------------------------|          |
|------------------------------------|          |
                                                2x 
|------------------------------------|          |
|-2-2-2---3-3-3-3--5-5-5--3-3-3-3----|          |
|------------------------------------|          |
|-2-2-2---4-4-4-4--4-4-4--4-4-4-4----|          |
|------------------------------------|          |
|------------------------------------|          |

(parte 3)
|-3-3-3-------3--3-3-3-3-3-----------|
|-3-3-3-------3--3-3-3-3-3-----------|
|------------------------------------|
|-------------2--2-2-2-2-2-----------|
|-2-2-2--0-2--3--3-3-3-3-3-----------|
|-3-3-3--0-0--0----------------------|

(parte 4)

("abafadinha" nas cordas depois de toca-las)

|-2-2-2/4-4-4------------------------|          |
|-3-3-3/5-5-5------------------------|          |
|-2-2-2/4-4-4------------------------|          2x 
|------------------------------------|          |
|------------------------------------|          |
|------------------------------------|          |

(repete parte 3)
(repete parte 4)

(parte 5)

("abafadinha" nas mesmas notas)
|-2-2-2/4-4-4------------------------|          |
|-3-3-3/5-5-5--------3----------3----|          |
|-2-2-2/4-4-4------0---0------0---0--|          4x 
|---------------3--------3-2--------2|          |
|------------------------------------|          |
|------------------------------------|          |

(repete tudo)
Acordes para:
    Composição: Gary Cherone / Nuno Bettencourt Colaboração e revisão:
    • Leonardo Melo

    0 comentários

    mostrar mais comentários

    Conseguiu tocar?

    2 tocaram 0 ainda não

    Grave um vídeo tocando Hole Hearted e mande pra gente!

    00:00 / 00:00
    outros vídeos desta música
    repetir qualidade Automático
    Outros vídeos desta música
    00:00 / 00:00
    Automático
    OK