Cifra Club

Interface

Extreme

Cifra: Principal (violão e guitarra)
Tom: F
(intro 4x) C Bb

F
Don't just sit there and stare at me
C
Don't just sit there and watch me bleed
    Bb                        Fsus4  F
I'm losing you and you you're losing me
F
I'm tired of what we are
C
I'm tired of all the pain
    Bb                        Fsus4  F
I'm losing you and you you're losing me

(intervalo)

E|--------------------------|
B|--------------------------|
G|------10-----------10-----|
D|-7-10----10-7-7-10----10--|   (2x)
A|--------------------------|
E|--------------------------|

E|------------------------------------------|
B|------------------------------------------|
G|------10-----------10----------10------10-|
D|-7-10----10-7-7-10----10--7-10----7-10----|
A|------------------------------------------|
E|------------------------------------------|

F
Face lies flat
   C
I see my reflection
F
Download thoughts
         C
But your files are corrupted

(refrão)

(intervalo)

F
Time stands still
         C
And your frozen in motion
F
I held down your escape
           C
But you're crashing
       C
You're crashing
exibições 1.837
Acordes para:
    Composição: Extreme Colaboração e revisão:
    • Paulo Ricardo

    0 comentários

    mostrar mais comentários

    Conseguiu tocar?

    3 tocaram 0 ainda não

    Grave um vídeo tocando Interface e mande pra gente!

    00:00 / 00:00
    outros vídeos desta música
    repetir qualidade Automático
    Outros vídeos desta música
    00:00 / 00:00
    Automático
    OK