Cifra Club

More Than Words

Extreme

Cifra: Principal (violão e guitarra)
exibições 4.604.712
Tom: Ebm (forma dos acordes no tom de Em) Afinação: Eb Ab Db Gb Bb Eb
[Intro - 2x] G  G/B  C9  Am7  C  D  D4

(Parte 1 de 3)

   G        G/B      C9
E|----3--x--3--3--x--3--3--x-----3-----x--------------|
B|----3--x--3--3--x--3--3--x-----3--3--x--------------|
G|----0--x--0--0--x--0--0--x-----0--0--x--------------|
D|-------x--------x--------x-----------x--------------|
A|-------x--2-----x--3-----x--3--3--3--x--------------|
E|-3-----x--------x--------x-----------x--------------|
      i        i        i

(Parte 2 de 3)

   Am7                  C
E|----0--x-----3-----x-----0--x-----------------------|
B|-1--1--x-----1--1--x--1--1--x-----------------------|
G|-0--0--x-----0--0--x--0--0--x-----------------------|
D|-------x-----------x--------x-----------------------|
A|-0-----x--0--0--0--x--3-----x-----------------------|
E|-------x-----------x--------x-----------------------|
      i                    i

(Parte 3 de 3)

   D     D4
E|-2-----3--x-----------------------------------------|
B|-3-----3--x-----------------------------------------|
G|----2--2--x-----------------------------------------|
D|-0--------x-----------------------------------------|
A|----------x-----------------------------------------|
E|----------x-----------------------------------------|
         i

(Parte 1 de 3 - Variação)

   G        G/B      C9
E|-3--3--x--3--3--x--3--3--x-----3-----x--------------|
B|-3--3--x--3--3--x--3--3--x-----3--3--x--------------|
G|-0--0--x--0--0--x--0--0--x-----0--0--x--------------|
D|-------x--------x--------x-----------x--------------|
A|-------x--2-----x--3-----x--3--3--3--x--------------|
E|-3-----x--------x--------x-----------x--------------|

(Repete Parte 2 de 3)

   Am7                  C
E|----0--x-----3-----x-----0--x-----------------------|
B|-1--1--x-----1--1--x--1--1--x-----------------------|
G|-0--0--x-----0--0--x--0--0--x-----------------------|
D|-------x-----------x--------x-----------------------|
A|-0-----x--0--0--0--x--3-----x-----------------------|
E|-------x-----------x--------x-----------------------|
      i                    i

(Repete Parte 3 de 3)

   D     D4
E|-2-----3--x-----------------------------------------|
B|-3-----3--x-----------------------------------------|
G|----2--2--x-----------------------------------------|
D|-0--------x-----------------------------------------|
A|----------x-----------------------------------------|
E|----------x-----------------------------------------|
         i

[Primeira Parte]

G  G/B         C9
    Saying "I love you"
    Am7             C       D     D4  G
Is not the words I want to hear from you
G/B              C9       Am7
It's not that I want you not to say
    C      D  D4
But if you only knew

[Segunda Parte]

Parte 1 de 4

   Em                Am7
E|-0--0--x-----0--x-----0--x--------------------------|
B|-0--0--x--0--0--x--1--1--x--------------------------|
G|-0--0--x--0--0--x--0--0--x--------------------------|
D|-------x--------x--------x--------------------------|
A|-------x--2-----x--0-----x--------------------------|
E|-0-----x--------x--------x--------------------------|
      i

              D7
E|----3-----x-----2--x--2--2--x-----------------------|
B|----1--1--x-----1--x--1--1--x-----------------------|
G|----0--0--x-----2--x--2--2--x-----------------------|
D|----------x-----0--x--0-----x-----------------------|
A|-0--0--0--x--0-----x--------x-----------------------|
E|----------x--------x--------x-----------------------|
                           i

Parte 2 de 4

   G         D9/F#
E|-3----3---------0-----------------------------------|
B|-3----3----3----3-----------------------------------|
G|-0----0----2----2-----------------------------------|
D|----------------------------------------------------|
A|----------------------------------------------------|
E|-3----3----2----2-----------------------------------|

Repete Parte 1

   Em                Am7
E|-0--0--x-----0--x-----0--x--------------------------|
B|-0--0--x--0--0--x--1--1--x--------------------------|
G|-0--0--x--0--0--x--0--0--x--------------------------|
D|-------x--------x--------x--------------------------|
A|-------x--2-----x--0-----x--------------------------|
E|-0-----x--------x--------x--------------------------|
      i

                  D7
E|----3-----x-----2--x--2--2--x-----------------------|
B|----1--1--x-----1--x--1--1--x-----------------------|
G|----0--0--x-----2--x--2--2--x-----------------------|
D|----------x-----0--x--0-----x-----------------------|
A|-0--0--0--x--0-----x--------x-----------------------|
E|----------x--------x--------x-----------------------|
                           i

Parte 3 de 4

   G7                C
E|-1--1--x--1--1--x-----0--x-----0-----x--------------|
B|-0--0--x--0--0--x--1--1--x-----1--1--x--------------|
G|-0--0--x--0--0--x--0--0--x-----0--0--x--------------|
D|-------x--------x--------x-----------x--------------|
A|-------x--2-----x--3-----x--3--3--3--x--------------|
E|-3-----x--------x--------x-----------x--------------|
      i        i        i

   Cm
E|----3--x-----3-----x--------------------------------|
B|-4--4--x-----4--4--x--------------------------------|
G|-5--5--x-----5--5--x--------------------------------|
D|-------x-----------x--------------------------------|
A|-3-----x--3--3--3--x--------------------------------|
E|-------x-----------x--------------------------------|
      i

Parte 4 de 4

   G
E|-3--3--x-----3--------------------------------------|
B|-3--3--x-----3--3-----------------------------------|
G|-0--0--x-----0--0-----------------------------------|
D|-------x--------------------------------------------|
A|-------x--------------------------------------------|
E|-3-----x--3--3--3--2--------------------------------|

   Em7                      Am7  D7
E|-3--x--3--x--3--x--3--x---0----2--------------------|
B|-3--x--3--x--3--x--3--x---1----1--------------------|
G|-0--x--0--x--0--x--0--x---0----2--------------------|
D|----x-----x--2--x-----x---2----0--------------------|
A|----x--2--x-----x--2--x---0-------------------------|
E|-0--x-----x-----x-----x-----------------------------|
      i

Em     Am7
   How easy
D7               G      D9/F#   Em
It would be to show me how you feel
           Am7
More than words
   D7               G7            C
Is all you have to do to make it real
          Cm               G
Then you wouldn't have to say
          Em7
That you love me
      Am7    D7
Cause I'd already know

[Terceira Parte]

Parte 1 de 4

    G                                  
E|-----3--x--3--3--x--3--3--x--3--3--x----------------|
B|-----3--x--3--3--x--3--3--x--3--3--x----------------|
G|-----0--x--0--0--x--0--0--x--0--0--x----------------|
D|--------x--------x--------x--------x----------------|
A|--------x--2-----x--------x--2-----x----------------|
E|--3-----x--------x--3-----x--------x--0-------------|
       i        i        i        i

    D9/F#          Em          Bm
E|-----0-----0--x--0--x-----x--------2--x-------------|
B|--3--3--3--3--x--0--x--0--x--3-----3--x-------------|
G|--2-----2-----x--0--x--0--x--4-----4--x-------------|
D|--------------x-----x-----x-----4-----x-------------|
A|--------------x-----x--2--x--2--------x-------------|
E|--2-----2-----x--0--x-----x-----------x-------------|
                                     i
Parte 2 de 4

   C                                         
E|----0--x-----0-----x-----0--x--0--x--0--x-----------|
B|-1--1--x-----1--1--x--1--1--x--1--x--1--x-----------|
G|-0--0--x-----0--0--x--0--0--x--0--x--0--x-----------|
D|-------x-----------x--------x-----x-----x-----------|
A|-3-----x--3--3--3--x--3-----x--3--x--2--x-----------|
E|-------x-----------x--------x-----x-----x-----------|
      i                    i

Parte 3 de 4

   Am7
E|----0--x-----3-----x--------------------------------|
B|-1--1--x-----1--1--x--------------------------------|
G|-0--0--x-----0--0--x--------------------------------|
D|-------x-----------x--------------------------------|
A|-0-----x--0--0--0--x--------------------------------|
E|-------x-----------x--------------------------------|
      i

Parte 4 de 4

   D7
E|-2--x--2--x--2--x--2--x-----------------------------|
A|-1--x--1--x--1--x--1--x-----------------------------|
G|-2--x--2--x--2--x--2--x-----------------------------|
D|-0--x-----x--0--x-----x-----------------------------|
A|----x-----x-----x-----x-----------------------------|
E|----x-----x-----x-----x-----------------------------|

Repete Parte 1 de 4

    G                                  
E|-----3--x--3--3--x--3--3--x--3--3--x----------------|
B|-----3--x--3--3--x--3--3--x--3--3--x----------------|
G|-----0--x--0--0--x--0--0--x--0--0--x----------------|
D|--------x--------x--------x--------x----------------|
A|--------x--2-----x--------x--2-----x----------------|
E|--3-----x--------x--3-----x--------x--0-------------|
       i        i        i        i

    D9/F#          Em          Bm
E|-----0-----0--x--0--x-----x--------2--x-------------|
B|--3--3--3--3--x--0--x--0--x--3-----3--x-------------|
G|--2-----2-----x--0--x--0--x--4-----4--x-------------|
D|--------------x-----x-----x-----4-----x-------------|
A|--------------x-----x--2--x--2--------x-------------|
E|--2-----2-----x--0--x-----x-----------x-------------|
                                     i
Repete Parte 2 de 4

   C                                         
E|----0--x-----0-----x-----0--x--0--x--0--x-----------|
B|-1--1--x-----1--1--x--1--1--x--1--x--1--x-----------|
G|-0--0--x-----0--0--x--0--0--x--0--x--0--x-----------|
D|-------x-----------x--------x-----x-----x-----------|
A|-3-----x--3--3--3--x--3-----x--3--x--2--x-----------|
E|-------x-----------x--------x-----x-----x-----------|
      i                    i


Parte 3 de 4 - Variação

   Am7
E|----0--x-----3-----x--2-----------------------------|
B|-1--1--x-----1--1--x--1-----------------------------|
G|-0--0--x-----0--0--x--2-----------------------------|
D|-------x-----------x--0-----------------------------|
A|-0-----x--0--0--0--x--------------------------------|
E|-------x-----------x--------------------------------|
      i

G                 D9/F#
  What would you do
       Em        Bm       C
If my heart was torn in two
                             Am7
More than words to show you feel
           D7             G
That your love for me is real
                D9/F#
What would you say
      Em         Bm     C
If I took those words away
                               Am7
Than you couldn't make things new
         D7            
Just by saying I love you

[Refrão]

(Parte 1 de 3)

   G        G/B      C9
E|-3--3--x--3--3--x--3--3--x-----3-----x--------------|
B|-3--3--x--3--3--x--3--3--x-----3--3--x--------------|
G|-0--0--x--0--0--x--0--0--x-----0--0--x--------------|
D|-------x--------x--------x-----------x--------------|
A|-------x--2-----x--3-----x--3--3--3--x--------------|
E|-3-----x--------x--------x-----------x--------------|

(Parte 2 de 3)

   Am7                  C
E|----0--x-----3-----x-----0--x-----------------------|
B|-1--1--x-----1--1--x--1--1--x-----------------------|
G|-0--0--x-----0--0--x--0--0--x-----------------------|
D|-------x-----------x--------x-----------------------|
A|-0-----x--0--0--0--x--3-----x-----------------------|
E|-------x-----------x--------x-----------------------|
      i                    i

(Parte 3 de 3)

   D     D4
E|-2-----3--x-----------------------------------------|
B|-3-----3--x-----------------------------------------|
G|----2--2--x-----------------------------------------|
D|-0--------x-----------------------------------------|
A|----------x-----------------------------------------|
E|----------x-----------------------------------------|
         i

(Repete Parte 1 de 3)

   G        G/B      C9
E|-3--3--x--3--3--x--3--3--x-----3-----x--------------|
B|-3--3--x--3--3--x--3--3--x-----3--3--x--------------|
G|-0--0--x--0--0--x--0--0--x-----0--0--x--------------|
D|-------x--------x--------x-----------x--------------|
A|-------x--2-----x--3-----x--3--3--3--x--------------|
E|-3-----x--------x--------x-----------x--------------|

(Parte 2 de 3)

   Am7  D7
E|-0----2---------------------------------------------|
B|-1----1---------------------------------------------|
G|-0----2---------------------------------------------|
D|-2----0---------------------------------------------|
A|-0--------------------------------------------------|
E|----------------------------------------------------|

G  G/B  C9             Am7            C
       Da ri da la ri ra ri la la ri la
 D     D4  G    G/B
More than words
 C9             Am7  D7
Da ri da la ri ra


G G/B               C9
    Now that I've tried to
  Am7             C       D  D4     G  G/B
Talk to you and make you understand
         C9             Am7
All you have to do is close your eyes
      C          D   D4   Em
And just reach out your hands

[Segunda Parte]

Parte 1 de 4

   Em                Am7
E|-0--0--x-----0--x-----0--x--------------------------|
B|-0--0--x--0--0--x--1--1--x--------------------------|
G|-0--0--x--0--0--x--0--0--x--------------------------|
D|-------x--------x--------x--------------------------|
A|-------x--2-----x--0-----x--------------------------|
E|-0-----x--------x--------x--------------------------|
      i

              D7
E|----3-----x-----2--x--2--2--x-----------------------|
B|----1--1--x-----1--x--1--1--x-----------------------|
G|----0--0--x-----2--x--2--2--x-----------------------|
D|----------x-----0--x--0-----x-----------------------|
A|-0--0--0--x--0-----x--------x-----------------------|
E|----------x--------x--------x-----------------------|
                           i

Parte 2 de 4

   G           D9/F#       Em         Am7         
E|-3--x--3--x--2--x--2--x--0---0--x---0--0--x---------|
B|-3--x--3--x--3--x--3--x--0---0--x---1--1--x---------|
G|-0--x--0--x--2--x--2--x--0---0--x---0--0--x---------|
D|-0--x--0--x--0--x--0--x--2---2--x---2-----x---------|
A|-2--x--2--x--0--x--0--x--2---2--x---0-----x---------|
E|-3--x--3--x--2--x--2--x--0---0--x---------x---------|

    Am7            D7
E|-----3-----x-----2--x--2--2--x----------------------|
B|-----1--1--x-----1--x--1--1--x----------------------|
G|-----0--0--x-----2--x--2--2--x----------------------|
D|-----------x-----0--x--0-----x----------------------|
A|--0--0--0--x--0-----x--------x----------------------|
E|-----------x--------x--------x----------------------|
                            i    

Parte 3 de 4

   G7                C
E|-1--1--x--1--1--x-----0--x-----0-----x--------------|
B|-0--0--x--0--0--x--1--1--x-----1--1--x--------------|
G|-0--0--x--0--0--x--0--0--x-----0--0--x--------------|
D|-------x--------x--------x-----------x--------------|
A|-------x--2-----x--3-----x--3--3--3--x--------------|
E|-3-----x--------x--------x-----------x--------------|
      i        i        i

   Cm
E|----3--x-----3-----x--------------------------------|
B|-4--4--x-----4--4--x--------------------------------|
G|-5--5--x-----5--5--x--------------------------------|
D|-------x-----------x--------------------------------|
A|-3-----x--3--3--3--x--------------------------------|
E|-------x-----------x--------------------------------|
      i

Parte 4 de 4

   G
E|-3--3--x-----3--------------------------------------|
B|-3--3--x-----3--3-----------------------------------|
G|-0--0--x-----0--0-----------------------------------|
D|-------x--------------------------------------------|
A|-------x--------------------------------------------|
E|-3-----x--3--3--3--2--------------------------------|

   Em7                      Am7  D7   D7(b9)
E|-3--x--3--x--3--x--3--x---0----2----5---------------|
B|-3--x--3--x--3--x--3--x---1----1----4---------------|
G|-0--x--0--x--0--x--0--x---0----2----5---------------|
D|----x-----x--2--x-----x---2----0----0---------------|
A|----x--2--x-----x--2--x---0-------------------------|
E|-0--x-----x-----x-----x-----------------------------|
      i

     Am7
And touch me
 D7                  G     D/F#   Em
Hold me close, don't ever let me go
           Am7
More than words
   D7          G7             C
Is all I ever needed you to show
          Cm               G
Then you wouldn't have to say
          Em7
That you love me
      Am7    D7   D7(b9)   G
Cause I'd already        know

[Final]

                D9/F#
What would you do
   Em        Bm       C
If my heart was torn in two
                         G/B Am7
More than words to show you feel
           D7             G
That your love for me is real
                D9/F#
What would you say
   Em         Bm     C
If I took those words away
                               Am7
Than you couldn't make things new
         D7            G
Just by saying I love you
Acordes para:

    0 comentários

    mostrar mais comentários
    00:00 / 00:00
    outros vídeos desta música
    repetir qualidade Automático
    Outros vídeos desta música
    00:00 / 00:00
    Automático
    Capítulos
    • Início
    • Ensinando afinação
    • Acordes da introdução
    • Tocando a introdução
    • Ensinando o rítmo da introdução (parte 1)
    • Ensinando o rítmo da introdução (parte 2)
    • Ensinando o rítmo da introdução (parte 3)
    • Tocando a introdução devagar
    • Dica para repetição da introdução
    • Tocando a introdução completa devagar
    • Acordes e rítmo da primeira parte
    • Tocando a primeira parte
    • Acordes da segunda parte
    • Tocando a segunda parte
    • Ensinando o rítmo da segunda parte (parte 1)
    • Ensinando o rítmo da segunda parte (parte 2)
    • Ensinando o rítmo da segunda parte (parte 3)
    • Ensinando o rítmo da segunda parte (parte 4)
    • Tocando o rítmo completo da segunda parte
    • Acordes da terceira parte
    • Tocando a terceira parte
    • Ensinando o rítmo da terceira parte (parte 1)
    • Ensinando o rítmo da terceira parte (parte 2)
    • Ensinando o rítmo da terceira parte (parte 3)
    • Ensinando o rítmo da terceira parte (parte 4)
    • Tocando o rítmo completo da terceira parte
    • Dica para repetição das notas
    • Acordes do refrão
    • Tocando o refrão
    • Ensinando o rítmo do refrão
    • Variações de acordes na segunda repetição da músic
    • Tocando a segunda repetição com variações
    • Ensinando o rítmo da segunda repetição
    • Final da música (versão do clipe)
    • Ensinando rítmo do final (versão clipe)
    • Encerramento
    OK