Cifra Club

Slide

Extreme

Cifra: Principal (violão e guitarra)
Selo Cifra Club: esta cifra foi revisada para atender aos critérios oficiais da nossa Equipe de Qualidade.
tom: Am
(0:00)
E|---------------------------------------------------------------------------|
B|---------------------------------------------------------------------------|
G|------------3---------------------------------3----------------------------|
D|----0-3-4-5---2~--2-3-3-3-4~--4-5-5---0-3-4-5---2~--2-3-3-3-4~--4-5-5------|
A|---------------------------------------------------------------------------|
E|---------------------------------------------------------------------------|

E|---------------------------------------------------------------------------|
B|---------------------------------------------------------------------------|
G|------------3---------------------------3~--3-4-4-4-5~--5-5b~--5-3---------|
D|----0-3-4-5---2~--2-3-3-3-4~--4-5-5---5----------------------------5-3-----|
A|---------------------------------------------------------------------------|
E|---------------------------------------------------------------------------|

E|---------------------------------------------------------------------------|
B|---------------------------------------------------------------------------|
G|------------3---------------------------------3----------------------------|
D|----0-3-4-5---2~--2-3-3-3-4~--4-5-5---0-3-4-5---2~--2-3-3-3-4~--4-5-5------|
A|---------------------------------------------------------------------------|
E|---------------------------------------------------------------------------|

E|---------------------------------------------------------------------------|
B|---------------------------------------------------------------------------|
G|------------3---------------------------3~--3-4-4-4-5~--5-5b~--5-3---------|
D|----0-3-4-5---2~--2-3-3-3-4~--4-5-5---5----------------------------5-3-----|
A|---------------------------------------------------------------------------|
E|---------------------------------------------------------------------------|

E|---------------------------------------------------------------------------|
B|---------------------------------------------------------------------------|
G|------------3---------------------------------3----------------------------|
D|----0-3-4-5---2~--2-3-3-3-4~--4-5-5---0-3-4-5---2~--2-3-3-3-4~--4-5-5------|
A|---------------------------------------------------------------------------|
E|---------------------------------------------------------------------------|

E|---------------------------------------------------------------------------|
B|---------------------------------------------------------------------------|
G|------------3---------------------------3~--3-4-4-4-5~--5-5b~--5-3---------|
D|----0-3-4-5---2~--2-3-3-3-4~--4-5-5---5----------------------------5-3-----|
A|---------------------------------------------------------------------------|
E|---------------------------------------------------------------------------|


[Verse]

(0:26)
      Find the groove, Then drop the hammer

E|----13-13-13-13-13-13-------------------------13-13-13-13-13-13------------|
B|----12-12-12-12-12-12-------------------------12-12-12-12-12-12------------|
G|---------------------------------------------------------------------------|
D|---------------------------------------------------------------------------|
A|---------------------------------------------------------------------------|
E|---------------------------------------------------------------------------|

      Overtake, but don't you kick your leg outta bed

E|----x-----13-13-13-13-x-x-13-x-x-13---10-10-10-10-10-10-10-12---10---------|
B|----x-----12-12-12-12-x-x-12-x-x-12---12-12-12-12-12-12-12-12---12---------|
G|---------------------------------------------------------------------------|
D|---------------------------------------------------------------------------|
A|---------------------------------------------------------------------------|
E|---------------------------------------------------------------------------|

      Get loose, don't keep it matted

E|----13-13-13-13-13-13-------------------------13-13-13-13-13-13------------|
B|----12-12-12-12-12-12-------------------------12-12-12-12-12-12------------|
G|---------------------------------------------------------------------------|
D|---------------------------------------------------------------------------|
A|---------------------------------------------------------------------------|
E|---------------------------------------------------------------------------|

      A rooster tail, and you're never gonna qualify

E|----x-----13-13-13-13-x-x-13-x-x-13---10-10-10-10-10-10-10-12---10---------|
B|----x-----12-12-12-12-x-x-12-x-x-12---12-12-12-12-12-12-12-12---12---------|
G|---------------------------------------------------------------------------|
D|---------------------------------------------------------------------------|
A|---------------------------------------------------------------------------|
E|---------------------------------------------------------------------------|

     Never gonna qualify

E|---------------------------------------------------------------------------|
B|---------------------------------------------------------------------------|
G|------------3---------------------------------3----------------------------|
D|----0-3-4-5---2~--2-3-3-3-4~--4-5-5---0-3-4-5---2~--2-3-3-3-4~--4-5-5------|
A|---------------------------------------------------------------------------|
E|---------------------------------------------------------------------------|

E|---------------------------------------------------------------------------|
B|---------------------------------------------------------------------------|
G|------------3---------------------------3~--3-4-4-4-5~--5-5b~--5-3---------|
D|----0-3-4-5---2~--2-3-3-3-4~--4-5-5---5----------------------------5-3-----|
A|---------------------------------------------------------------------------|
E|---------------------------------------------------------------------------|


[Verse]

(1:01)
      Slingshot, gotta hit the apex

E|----13-13-13-13-13-13-------------------------13-13-13-13-13-13------------|
B|----12-12-12-12-12-12-------------------------12-12-12-12-12-12------------|
G|---------------------------------------------------------------------------|
D|---------------------------------------------------------------------------|
A|---------------------------------------------------------------------------|
E|---------------------------------------------------------------------------|

      Sneak attack, yeah, you are a man on the move

E|----x-----13-13-13-13-x-x-13-x-x-13---10-10-10-10-10-10-10-12---10---------|
B|----x-----12-12-12-12-x-x-12-x-x-12---12-12-12-12-12-12-12-12---12---------|
G|---------------------------------------------------------------------------|
D|---------------------------------------------------------------------------|
A|---------------------------------------------------------------------------|
E|---------------------------------------------------------------------------|

      Dirty hair, hangin' in a vortex

E|----13-13-13-13-13-13-------------------------13-13-13-13-13-13------------|
B|----12-12-12-12-12-12-------------------------12-12-12-12-12-12------------|
G|---------------------------------------------------------------------------|
D|---------------------------------------------------------------------------|
A|---------------------------------------------------------------------------|
E|---------------------------------------------------------------------------|

      Can you feel the rub? Well, it's a shootout as we

E|----x-----13-13-13-13-x-x-13-x-x-13---10-10-10-10-10-10-10-12---10---------|
B|----x-----12-12-12-12-x-x-12-x-x-12---12-12-12-12-12-12-12-12---12---------|
G|---------------------------------------------------------------------------|
D|---------------------------------------------------------------------------|
A|---------------------------------------------------------------------------|
E|---------------------------------------------------------------------------|


[Chorus]

(1:19)
     (Slide, it, in)

E|---------------------------------------------------------------------------|
B|---------------------------------------------------------------------------|
G|------------3---------------------------------3----------------------------|
D|----0-3-4-5---2~--2-3-3-3-4~--4-5-5---0-3-4-5---2~--2-3-3-3-4~--4-5-5------|
A|---------------------------------------------------------------------------|
E|---------------------------------------------------------------------------|

     Never gonna qualify

E|---------------------------------------------------------------------------|
B|---------------------------------------------------------------------------|
G|------------3---------------------------3~--3-4-4-4-5~--5-5b~--5-3---------|
D|----0-3-4-5---2~--2-3-3-3-4~--4-5-5---5----------------------------5-3-----|
A|---------------------------------------------------------------------------|
E|---------------------------------------------------------------------------|

     (Slide, it, in) Oh,

E|---------------------------------------------------------------------------|
B|---------------------------------------------------------------------------|
G|------------3---------------------------------3----------------------------|
D|----0-3-4-5---2~--2-3-3-3-4~--4-5-5---0-3-4-5---2~--2-3-3-3-4~--4-5-5------|
A|---------------------------------------------------------------------------|
E|---------------------------------------------------------------------------|

     No-oh, oooh yeah

E|---------------------------------------------------------------------------|
B|---------------------------------------------------------------------------|
G|------------3---------------------------3~--3-4-4-4-5~--5-5b~--5-3---------|
D|----0-3-4-5---2~--2-3-3-3-4~--4-5-5---5----------------------------5-3-----|
A|---------------------------------------------------------------------------|
E|---------------------------------------------------------------------------|


[Bridge]

(1:37)

E|---------------------------------------------------------------------------|
B|---------------------------------------------------------------------------|
G|---7-----7--------10------12------13---7-----7---------10------12------13--|
D|---------------------------------------------------------------------------|
A|-5---5-5---5----8----x-10----x-11----5---5-5---5-----8----x-10----x-11-----|
E|---------------------------------------------------------------------------|

E|---------------------------------------------------------------------------|
B|---------------------------------------------------------------------------|
G|---7-----7--------10------12------13----14-------14----------13-----12---10|
D|---------------------------------------------------------------------------|
A|-5---5-5---5----8----x-10----x-11----12----12-12----12---11------10----8---|
E|---------------------------------------------------------------------------|

E|---------------------------------------------------------------------------|
B|---------------------------------------------------------------------------|
G|---7-----7--------10------12------13---7-----7---------10------12------13--|
D|---------------------------------------------------------------------------|
A|-5---5-5---5----8----x-10----x-11----5---5-5---5-----8----x-10----x-11-----|
E|---------------------------------------------------------------------------|

E|---------------------------------------------------------------------------|
B|---------------------------------------------------------------------------|
G|---7-----7--------10------12------13----14-------14----------13-----12---10|
D|---------------------------------------------------------------------------|
A|-5---5-5---5----8----x-10----x-11----12----12-12----12---11------10----8---|
E|---------------------------------------------------------------------------|

     Don't become an emotional wreck

E|---------------------------------------------------------------------------|
B|----6-6-6-6-----------------------------------6-6-6-6-6-6------------------|
G|----7-7-7-7-----------------------------------7-7-7-7-7-7------------------|
D|---------------------------------------------------------------------------|
A|---------------------------------------------------------------------------|
E|---------------------------------------------------------------------------|

     Take it slow pit row, you're movin' too fast

E|---------------------------------------------------------------------------|
B|----x-----6-6-6-6-x-x-6-x-x-6---6/13-13-13-13-13-13-13-x-x-13--x-12--x-11--|
G|----x-----7-7-7-7-x-x-7-x-x-7---7/14-14-14-14-14-14-14-x-x-14--x-13--x-12--|
D|---------------------------------------------------------------------------|
A|---------------------------------------------------------------------------|
E|---------------------------------------------------------------------------|

     They can read your telemetry

E|---------------------------------------------------------------------------|
B|----6-6-6-6-----------------------------------6-6-6-6-6-6------------------|
G|----7-7-7-7-----------------------------------7-7-7-7-7-7------------------|
D|---------------------------------------------------------------------------|
A|---------------------------------------------------------------------------|
E|---------------------------------------------------------------------------|

     Get you in, get you out, in less than fifteen

E|---------------------------------------------------------------------------|
B|----x-----6-6-6-6-x-x-6-x-x-6---6/13-13-13-13-13-13-13-x-x-13--x-12--x-11--|
G|----x-----7-7-7-7-x-x-7-x-x-7---7/14-14-14-14-14-14-14-x-x-14--x-13--x-12--|
D|---------------------------------------------------------------------------|
A|---------------------------------------------------------------------------|
E|---------------------------------------------------------------------------|

     Stop     -     Get you some slicks

E|---------------------------------------------------------------------------|
B|----6-6-6-6-6-6--------------------------------6-6-6-6-6-6-----6-----------|
G|----7-7-7-7-7-7--------------------------------7-7-7-7-7-7-----7-----------|
D|---------------------------------------------------------------------------|
A|---------------------------------------------------------------------------|
E|---------------------------------------------------------------------------|

     Nice and tight, get your fine fresh rubber

E|---------------------------------------------------------------------------|
B|----x-----6-6-6-6-x-x-6-x-x-6---6/13-13-13-13-13-13-13-x-x-13--x-12--x-11--|
G|----x-----7-7-7-7-x-x-7-x-x-7---7/14-14-14-14-14-14-14-x-x-14--x-13--x-12--|
D|---------------------------------------------------------------------------|
A|---------------------------------------------------------------------------|
E|---------------------------------------------------------------------------|

     Take the flag     -     And shake the champagne 

E|---------------------------------------------------------------------------|
B|----6-6-6-6-6-6---------------------------------6-6-6-6-6-6-----6----------|
G|----7-7-7-7-7-7---------------------------------7-7-7-7-7-7-----7----------|
D|---------------------------------------------------------------------------|
A|---------------------------------------------------------------------------|
E|---------------------------------------------------------------------------|

    All you lizards are waiting, ready to play

E|---------------------------------------------------------------------------|
B|----x-----6-6-6-6-x-x-6-x-x-6---6/13-13-13-13-13-13-13---13-13-13-13-13-13-|
G|----x-----7-7-7-7-x-x-7-x-x-7---7/14-14-14-14-14-14-14---14-14-14-14-14-14-|
D|---------------------------------------------------------------------------|
A|---------------------------------------------------------------------------|
E|---------------------------------------------------------------------------|


[Pre-solo]

(2:31)

E|---------------------------------------------------------------------------|
B|---------------------------------------------------------------------------|
G|------------3---------------------------------3----------------------------|
D|----0-3-4-5---2~--2-3-3-3-4~--4-5-5---0-3-4-5---2~--2-3-3-3-4~--4-5-5------|
A|---------------------------------------------------------------------------|
E|---------------------------------------------------------------------------|

     Ready to play

E|---------------------------------------------------------------------------|
B|---------------------------------------------------------------------------|
G|------------3---------------------------3~--3-4-4-4-5~--5-5b~--5-3---------|
D|----0-3-4-5---2~--2-3-3-3-4~--4-5-5---5----------------------------5-3-----|
A|---------------------------------------------------------------------------|
E|---------------------------------------------------------------------------|


[Solo]     
(2:40)
(COE NG SOON)

E|---------------------------------------------------------------------------|
B|----11-11-------11-11----11b12~---11---11----11----11b13~--11~-------------|
G|----------12-12-------12------------------12----12-------------------------|
D|---------------------------------------------------------------------------|
A|---------------------------------------------------------------------------|
E|---------------------------------------------------------------------------|

E|-------------------------------------------------------13b15~--------------|
B|----11-11----11~------11---11b13~-------11b13r11----11------------15b17~---|
G|----------12-------12----------------------------12------------------------|
D|---------------------------------------------------------------------------|
A|---------------------------------------------------------------------------|
E|---------------------------------------------------------------------------|

E|----x-x-15-15-x-x----------x-------x-------------------x-------------------|
B|----x-x-------x-x-15-15-18-x-17-18-x-17-18-18-17-17-18-x-17~-18-18-17-17-18|
G|----x-x-------x-x----------x-------x-------------------x-------------------|
D|---------------------------------------------------------------------------|
A|---------------------------------------------------------------------------|
E|---------------------------------------------------------------------------|

E|---------------------------------------------------------------------------|
B|----17~---15---17b18r17b18r17~---17-17-15-17b18r17-15----------------------|
G|---------------------------------------------------------------------------|
D|---------------------------------------------------------------------------|
A|---------------------------------------------------------------------------|
E|---------------------------------------------------------------------------|


[Chorus]

(3:15)
     (Slide, it, in)

E|---------------------------------------------------------------------------|
B|---------------------------------------------------------------------------|
G|------------3---------------------------------3----------------------------|
D|----0-3-4-5---2~--2-3-3-3-4~--4-5-5---0-3-4-5---2~--2-3-3-3-4~--4-5-5------|
A|---------------------------------------------------------------------------|
E|---------------------------------------------------------------------------|

     Yeah, slide it

E|---------------------------------------------------------------------------|
B|---------------------------------------------------------------------------|
G|------------3---------------------------3~--3-4-4-4-5~--5-5b~--5-3---------|
D|----0-3-4-5---2~--2-3-3-3-4~--4-5-5---5----------------------------5-3-----|
A|---------------------------------------------------------------------------|
E|---------------------------------------------------------------------------|

     (Slide, it, in) I'm gonna qualify

E|---------------------------------------------------------------------------|
B|---------------------------------------------------------------------------|
G|------------3---------------------------------3----------------------------|
D|----0-3-4-5---2~--2-3-3-3-4~--4-5-5---0-3-4-5---2~--2-3-3-3-4~--4-5-5------|
A|---------------------------------------------------------------------------|
E|---------------------------------------------------------------------------|

     Yeah yeah, come on, come on

E|---------------------------------------------------------------------------|
B|---------------------------------------------------------------------------|
G|------------3---------------------------3~--3-4-4-4-5~--5-5b~--5-3---------|
D|----0-3-4-5---2~--2-3-3-3-4~--4-5-5---5----------------------------5-3-----|
A|---------------------------------------------------------------------------|
E|---------------------------------------------------------------------------|


[Outro pt. 1]

(3:33)

E|-13-13-13-13-13-13-13-13-13-13-13-13-13-13-13-13-13-13-13-13-13-13-13-13---|
B|-12-12-12-12-12-12-12-12-12-12-12-12-12-12-12-12-12-12-12-12-12-12-12-12---|
G|---------------------------------------------------------------------------|
D|---------------------------------------------------------------------------|
A|---------------------------------------------------------------------------|
E|---------------------------------------------------------------------------|

E|-13-13-13-13-13-13-13-13-13-13-13-13-13-13-13----15-15-15-15-15-15-15-15---|
B|-12-12-12-12-12-12-12-12-12-12-12-12-12-12-12----15-15-15-15-15-15-15-15---|
G|---------------------------------------------------------------------------|
D|---------------------------------------------------------------------------|
A|---------------------------------------------------------------------------|
E|---------------------------------------------------------------------------|

E|-13-13-13-13-13-13-13-13-13-13-13-13-13-13-13-13-13-13-13-13-13-13-13-13---|
B|-12-12-12-12-12-12-12-12-12-12-12-12-12-12-12-12-12-12-12-12-12-12-12-12---|
G|---------------------------------------------------------------------------|
D|---------------------------------------------------------------------------|
A|---------------------------------------------------------------------------|
E|---------------------------------------------------------------------------|

E|-13-13-13-13-13-13-13-13-13-13-13-13-13-13-13----15-15-15-15-15-15-15-15---|
B|-12-12-12-12-12-12-12-12-12-12-12-12-12-12-12----15-15-15-15-15-15-15-15---|
G|---------------------------------------------------------------------------|
D|---------------------------------------------------------------------------|
A|---------------------------------------------------------------------------|
E|---------------------------------------------------------------------------|


[Outro pt. 2]

(3:51)

E|-13-13-13---13---13---13---13---13---13-13---13-13---13---13---13---13-----|
B|-12-12-12---12---12---12---12---12---12-12---12-12---12---12---12---12-----|
G|---------------------------------------------------------------------------|
D|---------------------------------------------------------------------------|
A|---------------------------------------------------------------------------|
E|---------------------------------------------------------------------------|

E|-13---13---13---13---13---13---13---13---13-13---13-13---13---13-13---15-15|
B|-12---12---12---12---12---12---12---12---12-12---12-12---12---12-12---15-15|
G|---------------------------------------------------------------------------|
D|---------------------------------------------------------------------------|
A|---------------------------------------------------------------------------|
E|---------------------------------------------------------------------------|

E|-13-13-13-13-13-13-13--13---13-13---13-13---13--13--13--13--13-13-13-13-13-|
B|-12-12-12-12-12-12-12--12---12-12---12-12---12--12--12--12--12-12-12-12-12-|
G|---------------------------------------------------------------------------|
D|---------------------------------------------------------------------------|
A|---------------------------------------------------------------------------|
E|---------------------------------------------------------------------------|

e|-13xxxxx-13-xxxxx-13-xxxxx-13-xxxxx-13-xxxxx-13-xxxxx-15-15-15-15-15-15-15-|
B|-12xxxxx-12-xxxxx-12-xxxxx-12-xxxxx-12-xxxxx-12-xxxxx-15-15-15-15-15-15-15-|
G|---------------------------------------------------------------------------|
D|---------------------------------------------------------------------------|
A|---------------------------------------------------------------------------|
E|---------------------------------------------------------------------------|


[Outro pt. 3]

(4:09)

E|---------------------------------------------------------------------------|
B|---------------------------------------------------------------------------|
G|-----------------15--------------------------------------------------------|
D|--------15-16-17----14~-14-15-15-15-16~-16-17-17---------------------------|
A|-----17--------------------------------------------------------------------|
E|---------------------------------------------------------------------------|

E|---------------------------------------------------------------------------|
B|---------------------------------------------------------------------------|
G|-----------------15--------------------------------------------------------|
D|--------15-16-17----14~-14-15-15-15-16~-16-17-17---------------------------|
A|-----17--------------------------------------------------------------------|
E|---------------------------------------------------------------------------|

E|---------------------------------------------------------------------------|
B|---------------------------------------------------------------------------|
G|-----------------15--------------------------------------------------------|
D|--------15-16-17----14~-14-15-15-15-16~-16-17-17---------------------------|
A|-----17--------------------------------------------------------------------|
E|---------------------------------------------------------------------------|

E|---------------------------------------------------------------------------|
B|---------------------------------------------------------------------------|
G|-------15~-15-16-16-16-17~-17| 17b~-17-15-----------------------------------|
D|----17-----------------------------------17-15-----------------------------|
A|---------------------------------------------------------------------------|
E|---------------------------------------------------------------------------|

E|---------------------------------------------------------------------------|
B|---------------------------------------------------------------------------|
G|-----------------15--------------------------------------------------------|
D|--------15-16-17----14~-14-15-15-15-16~-16-17-17---------------------------|
A|-----17--------------------------------------------------------------------|
E|---------------------------------------------------------------------------|

E|---------------------------------------------------------------------------|
B|---------------------------------------------------------------------------|
G|-----------------15--------------------------------------------------------|
D|--------15-16-17----14~-14-15-15-15-16~-16-17-17---------------------------|
A|-----17--------------------------------------------------------------------|
E|---------------------------------------------------------------------------|

E|---------------------------------------------------------------------------|
B|---------------------------------------------------------------------------|
G|-----------------15--------------------------------------------------------|
D|--------15-16-17----14~-14-15-15-15-16~-16-17-17---------------------------|
A|-----17--------------------------------------------------------------------|
E|---------------------------------------------------------------------------|

E|---------------------------------------------------------------------------|
B|---------------------------------------------------------------------------|
G|-------15~-15-16-16-16-17~-17| 17b~-17-15-----------------------------------|
D|----17-----------------------------------17-15-----------------------------|
A|---------------------------------------------------------------------------|
E|---------------------------------------------------------------------------|

E|---------------------------------------------------------------------------|
B|---------------------------------------------------------------------------|
G|---------------------------------------------------------------------------|
D|---------------------------------------------------------------------------|
A|---------------------------------------------------------------------------|
E|----15~\-------------------------------------------------------------------|


[END - 4:35]



************************************

| x  Dead note
| r  Release
| b  Bend
| /  Slide up
| ~  Vibrato 
00:00 / 00:00
Outros vídeos desta música
Repetir
Outros vídeos desta música
11 exibições
    • ½ Tom
    • Am
    • Bbm
    • Bm
    • Cm
    • C#m
    • Dm
    • Ebm
    • Em
    • Fm
    • F#m
    • Gm
    • G#m
  • Adicionar à lista

Afinação da cifra

Afinador online

    0 comentários

    Ver todos os comentários

    Entre para o Cifra Club PRO

    Tenha acesso a benefícios exclusivos no App e no Site

    • Chega de anúncios

    • Mais recursos no app do Afinador

    • Atendimento Prioritário

    • Aumente seu limite de lista

    • Ajude a produzir mais conteúdo

    00:00 / 00:00

    Cifra Club Pro

    Aproveite o Cifra Club com benefícios exclusivos e sem anúncios
    Cifra Club Pro
    Aproveite o Cifra Club com benefícios exclusivos e sem anúncios
    OK