Cifra Club

Suzi

Extreme

Cifra: Principal (violão e guitarra)
tom: C
Received: from * by * (*.4)
        with SMTP id ; Wed, 13 Jan 1993 04:37:21 -0800
Received: from * by * id ; Wed, 13 Jan 1993 04:37:15 -0800
Received: from * by * with SMTP id AA00574
  (*.4.4 for ); Wed, 13 Jan 1993 23:37:03 +1100
Received: by * 
Date: Wed, 13 Jan 93 23:36:55 EDT
From: *.OZ.AU (*)
Message-Id: 
To: *


--------------

(read the "How to play it" section first)


  [ Intro. --->                                               
E ------------------------------------------------------------------------
B !---------------------------------------- H P---------------------------
G !-------------- H P ---------------------2-5-2--------------------- H P 
D !--------------2-3-2---------------------------3--2----------------2-3-2
A !-5--5-0--3--5--------5--3--5--5-0--3--5--------------5--5-0--3--5------
E ------------------------------------------------------------------------

                
E --5-------9-----7-----5-----3------2--0---------------------------------
B !-5--------------------------------------!------------------------------
G !-2---------9-7---7-6---6-4---4-2--2--0--!------------------------------
D !-2--------- P --- P --- P --- P --------!------------------------------
A !-0--------------------------------------!-5----0--3--4--5---5--5-0--3--
E ------------------------------------------------------------------------
      
                                                   

                                           
E ------------------------------------------------------------------------
B ------------------------------------------------------------------------
G ------------------------------------------------------------------------
D -----3---------------------------------------------5--------------------
A --5-------5--5-0--3--4--5-------3-------3--3------------x--5--x-x--5\---
E ----------------------------------1--1--------3--3----------------------



                                   
E ------------------------------------------------------------------------
B ------------------------------------------------------------------------
G -------------- P -------------------------------------------------------
D --------------3-0- P H -------------------------------------------------
A --5-----0-3-5-----3-0-5--------------------------5--5-0--3--4--5-------3
E ------------------------------------------------------------------------

             E5    D#aug5                                G5
E -----------------------------------------------------------------------
B |----------------------------------------------------------------------
G |--9-----9-----9-----9-9-9--8-----8-----8^9--9-9-9^8--8----12---12-----
D |--9-----9-----9-----9-9-9--9-----9-----9-9--9-9-9-9--9----12---12-----
A |--7-----7-----7-----7^9^7--6-----6-----6/7--7-7-7/6--6----10---10-----
E -------0-----0-----0------------0-----0-------------------0----0-----0-

     Su  - zi    wants her    all   day   sucker            (Su - zi 


                 F#aug5                                                                        ah.A
E ------------------------------------------------------------------------
B ----12^(10)^9---10-12--10--9^10^9---------------------------------------
G ----------------------------------11^10\--/11^13^11\---/11----11-13-14--
D ------------------------------------------------- ---------11-----------
A ------------------------------------------------------------------------
E ------------------------------------------------------------------------

E ---------------------------------------------------------------------9--
B ---------------------------------------------------9-10-12~~-9^10^12----
G 13---11---9--9^11^9^11^9^11^9^11^9/8^9^8----8-9-11----------------------
D -----------------------------------------11-----------------------------
A ------------------------------------------------------------------------
E ------------------------------------------------------------------------

                                [Too fast to work out]  
E ---------------------------------------14--------------14------14-16-17-
B 12--10--9^10^9--------------------------14-----------------14-----------
G ---------------11-10---11-13--??--??-----14-----------------------------
D ------------------------------------------16----------------------------
A -------------------------------------------16---------------------------
E ------------------------------------------------------------------------

                 {  trem  }
                    2 
                   /\                                           rake
E 16^17^16^14/12-14--14--12--11----------------9--------------------12--11
B -------------------------------------9^10^12---12^10^9---10------x------
G ------------------------------8^9^11----------------------------x-------
D ---------------------------------------------------------------x--------
A -------------------------------------------------------7----7-----------
E ------------------------------------------------------------------------

                              ah.B        ah.G       2(ah.B)
E --9-----------------------------------------------/\--------------------
B ----12-10-9/7-7^0-0-7-7^0-0-7----10-9-7-8\---/8-10--------8--7^8^7---8-7
G -------------------------------------------------------------------9----
D ------------------------------------------------------------------------
A ------------------------------------------------------------------------
E ------------------------------------------------------------------------

               
00:00 / 00:00
Outros vídeos desta música
Repetir
Outros vídeos desta música
Compositor não encontrado.
886 exibições
    • ½ Tom
    • A
    • Bb
    • B
    • C
    • Db
    • D
    • Eb
    • E
    • F
    • F#
    • G
    • Ab
  • Adicionar à lista

    0 comentários

    Ver todos os comentários

    Conseguiu tocar?

    0 Tocaram 0 Ainda não

    Grave um vídeo tocando Suzi e nos envie!

    Entre para oCifra Club PRO

    Tenha acesso a benefícios exclusivos no App e no Site

    • Chega de anúncios

    • Prioridade de compra em lançamentos

    • Mais recursos no app do Afinador

    • Atendimento Prioritário

    • Descontos nos produtos Cifra Club

    • Ajude a produzir mais conteúdo

    00:00 / 00:00

    Cifra Club Pro

    Aproveite o Cifra Club com benefícios exclusivos e sem anúncios
    Cifra Club Pro
    Aproveite o Cifra Club com benefícios exclusivos e sem anúncios
    OK