Cifra Club

Teachers Pet

Extreme

Cifra: Principal (violão e guitarra)
Selo Cifra Club: esta cifra foi revisada para atender aos critérios oficiais da nossa Equipe de Qualidade.
tom: Em
       (A)                                A5
Guitar 1:             1                     PM---|    PM---|    PM--|   PM------|   PM------|
E|-------------------------------------------------------------------------------------------|
B|-------------------------------------------------------------------------------------------|
G|------------4-----4^-(4)p2---2-2------1/2-------1/2-------1/2-----5/6---------5/6----------|
D|---------------------------4-----4p2--1/2-------1/2-------1/2-----4/5---------4/5----------|
A|------0--0-----0--------------------------0--0------0--0------0-0-----0-0-0-0-----0-0-0-0--|
E|-------------------------------------------------------------------------------------------|


              A5
        PM--|    PM---|     PM---|    PM--|
E|-------------------------------------------------------------------------|
B|-------------------------------------------------------------------------|
G|--5/6-----1/2--------1/2--------1/2--------5-5h7-5h7p5p0-5h7-12\-p7------|
D|--4/5-----1/2--------1/2--------1/2------5---5h7-5h7p5p0-5h7-12\-p7------|
A|------0-0------0--0-------0--0------0-0----------------------------------|
E|---------------------------------------------------------------------x---|


      A5
         PM---|     PM---|    PM--|   PM------|   PM------|   PM--|   PM---|    PM---|
E|------------------------------------------------------------------------------------|
B|------------------------------------------------------------------------------------|
G|--1/2--------1/2--------1/2-----5/6---------5/6---------5/6-----1/2-------1/2-------|
D|--1/2--------1/2--------1/2-----4/5---------4/5---------4/5-----1/2-------1/2-------|
A|-------0--0-------0--0------0-0-----0-0-0-0-----0-0-0-0-----0-0-----0--0------0--0--|
E|------------------------------------------------------------------------------------|


                             G5      A5
    PM----------------------|          PM---|     PM---|      PM--|    PM------|
E|------------------------------------------------------------------------------|
B|------------------------------------------------------------------------------|
G|---------------------------0-----1/2--------1/2--------1/2-------5/6----------|
D|---------------------------0-----1/2--------1/2--------1/2-------4/5----------|
A|--5-5-5-5-5-5-3-3-3-3-3-3-------------0--0-------0--0-------0-0------0-0-0-0--|
E|---------------------------3--------------------------------------------------|


                          A5
        PM------|   PM--|    PM---|    PM----|    PM-------|      PM                  PM---|
E|-------------------------------------------------------------------------------------------|
B|-------------------------------------------------------------------------------------------|
G|--5/6---------5/6-----1/2--------1/2--------1/2----------------------------------5---------|
D|--4/5---------4/5-----1/2--------1/2--------1/2----------------------------------5---------|
A|------0-0-0-0-----0-0------0--0-------0--0------0-0-------2--5-----0--4--0--3-------3--3---|
E|-------------------------------------------------------3--------3--------------------------|


    Csus2
      \ 1/2 / \ 1/2 / \ 1/2 / ~~~     AH~~~
E|-----------------------------------------|
B|--3--------------------------------------|
G|--5---------------------------------5----|
D|--5--------------------------------------|
A|--3--------------------------------------|
E|---------------------------------x\------|


[Verse]

    PM----|       PM--------------|      PM-------|                  AH                     AH  AH
E|--------------------------------------------------------------------------------------------------|
B|--------------------------------------------------------------------------------------------------|
G|--------------------------------------------------------------------------------------------------|
D|--------------------------------------------------------------------------------------------------|
A|-------------------------------------------------x-x-6/7--6--5---5-3---3-3-5-7-5-3-5-3-5--3--3----|
E|--5-3-0---------5-3-5-3-0-5-3-5--------5-3-5-3-0-----------------------------------------------3--|

    PM---|   AH     PM-------------| AH     PM---------|  PM------------------|
E|-------------------------------------------------------------------------------|
B|-------------------------------------------------------------------------------|
G|-------------------------------------------------------------------------------|
D|---------------------------------------------------------------5---------------|
A|-----------3----------------------5^--5--------------x-7-7-7-7---7-6-5--3--5---|
E|--5-3-0-----------5-3-5-3-0-5-3-0----------5-3-5-3-0---------------------------|


    N.C.
    PM-----------| AH AH
E|--------------------------|
B|--------------------------|
G|--------------------------|
D|--------------------------|
A|--3-3-5-7-5-3-5--3--3-----|
E|----------------------3---|


[Pre-Chorus]

                         AH                              AH
E|--------------------------------------------------------------|
B|--------------------------------------------------------------|
G|--------------------------------------------------------------|
D|------6-----6-----6---6-7p6-----------6-----6-----6---6h7-6---|
A|--5-7---5-7---4-7---7-------7-4-7-3-7---3-7-----7---7---------|
E|----------------------------------------------7---------------|

                        AH                              
E|----------------------------------------------------------|
B|----------------------------------------------------------|
G|----------------------------------------------------------|
D|------6-----6-----6---6-7p6-----------6-----6-------------|
A|--5-7---5-7---4-7---7-------7-4-7-3-7---3-7-----7---/x\x\-|
E|----------------------------------------------7-----/x\x\-|



[Chorus]

      A5
        PM---|    PM---|    PM--|   PM------|   PM------|   PM--|
E|----------------------------------------------------------------|
B|----------------------------------------------------------------|
G|--1/2-------1/2-------1/2-----5/6---------5/6---------5/6-------|
D|--1/2-------1/2-------1/2-----4/5---------4/5---------4/5-------|
A|------0--0------0--0------0-0-----0-0-0-0-----0-0-0-0-----0-0---|
E|----------------------------------------------------------------|


      A5
        PM---|    PM---|                                         T
E|-------------------------------------------15--------------15-22p17p15----15-17-22---|
B|---------------------------------------15------17p15----15-------------15------------|
G|--1/2-------1/2--------------------------------------17------------------------------|
D|--1/2-------1/2--------------------17------------------------------------------------|
A|------0--0------0--0--2-3----15------------------------------------------------------|
E|-------------------------------------------------------------------------------------|


[Verse 2]
  
    (A5)
    PM----|      PM-----------|  AH      PM-------|                     AH  light PM-----|
E|-------------------------------------------------------------------------------------------------|
B|-------------------------------------------------------------------------------------------------|
G|-------------------------------------------------------------------------------------------------|
D|-------------------------------------------------------------------------------------------------|
A|---------------------------------------------------x-x-/7--6---5---5-3----3-3-5-7-5-3-5--3--3----|
E|--5-3-0--------5-3-5-3-0--5-3-5--------5-3-5-3-0----------------------------------------------3--|

    PM------|  AH     PM--------------| 1       PM--------|   PM-----|         AH
E|--------------------------------------------------------------------------------------|
B|--------------------------------------------------------------------------------------|
G|--------------------------------------------------------------------------------------|
D|--------------------------------------------------------------------5-----------------|
A|------------3------------------------5^-(5)---------------x-7-7-7-7---7-6-5--3--5-3---|
E|--5-3-0--3---------5-3-5-3-0--5-3-0-----------5-3-5-3-0-------------------------------|

 
                     AH
E|--------------------------|
B|--------------------------|
G|--------------------------|
D|--------------------------|
A|---3-3-5-7-5-3-5--3--3----|
E|-----------------------3--|


[Pre-Chorus]
  
                        AH  AH                              AH
E|------------------------------------------------------------|
B|------------------------------------------------------------|
G|------------------------------------------------------------|
D|------6-----6-----6---6-7p6-----------6-----6-----6---6h7-6-|
A|--5-7---5-7---4-7---7-------7-4-7-3-7---3-7-----7---7-------|
E|----------------------------------------------7-------------|

                         AH             AH                  
E|---------------------------------------------------------------------------------------|
B|---------------------------------------------------------------------------------------|
G|-----------------------------------------------------------------------------13-14-16--|
D|------6-----6-----6---6-7p6-----------6-----6-----------------------13-14-16-----------|
A|--5-7---5-7---4-7---7-------7-4-7-3-7---3-7-----7----------12-14-16--------------------|
E|----------------------------------------------7---12-14-16-----------------------------|

                                   AH    AH                                       AH
E|-----------------------------------------------------------------------------------------|
B|-----------------------------------------------------------------------------------------|
G|--------13-------13-------13----13h14-13----------------13-------13------13----13h14-13--|
D|--12-14----12-14----11-14----14----------14-11-14-10-14----10-14----9-12----14-----------|
A|-----------------------------------------------------------------------------------------|
E|-----------------------------------------------------------------------------------------|

E|-------------------------------------------------------------|
B|-------------------------------------------------------------|
G|--------13-------13-------13----13h14p13---------------------|
D|--12-14----12-14----11-14----14----------14-11-14---\x\------|
A|----------------------------------------------------\x\x\----|
E|----------------------------------------------------\x\x\----|


[Chorus]

      A5
        PM---|    PM---|    PM--|   PM------|   PM------|   PM--|   PM---|    PM---|    PM--|
E|-------------------------------------------------------------------------------------------|
B|-------------------------------------------------------------------------------------------|
G|--1/2-------1/2-------1/2-----5/6---------5/6---------5/6-----1/2-------1/2-------1/2------|
D|--1/2-------1/2-------1/2-----4/5---------4/5---------4/5-----1/2-------1/2-------1/2------|
A|------0--0------0--0------0-0-----0-0-0-0-----0-0-0-0-----0-0-----0--0------0--0------0-0--|
E|-------------------------------------------------------------------------------------------|

 
    G5                        A5
                 ~~ ~~ AH~~     PM---|    PM---|    PM--|   PM-----|    PM-----|    PM--|
E|----------------------------------------------------------------------------------------|
B|----------------------------------------------------------------------------------------|
G|--7--7--7-----7--7--7-----1/2-------1/2-------1/2-----5/6---------5/6---------5/6-------|
D|--5--5--5--5--------------1/2-------1/2-------1/2-----4/5---------4/5---------4/5-------|
A|------------------------------0--0------0--0------0-0-----0-0-0-0-----0-0-0-0-----0-0---|
E|----------------------------------------------------------------------------------------|


      A5                         D5       G5
        PM---|    PM---|    PM--|
E|------------------------------------------------|
B|-------------------------------3--3-------------|
G|--1/2-------1/2-------1/2------2--2-----0-------|
D|--1/2-------1/2-------1/2------0--0--x--0-------|
A|------0--0------0--0------0-0--------x----------|
E|-------------------------------------x--3-------|


[Bridge]

                         AH AH                           AH                          AH AH
E|----------------------------------------------------------------------------------------------|
B|----------------------------------------------------------------------------------------------|
G|------6-----6-----6---6-7p6-----------6-----6-----6---6h7p6-------6-----6-----6---6-7p6-------|
D|--5-7---5-7---4-7---7-------7-4-7-3-7---3-7-----7---7---------5-7---5-7---4-7---7-------7-4---|
A|----------------------------------------------7-----------------------------------------------|
E|----------------------------------------------------------------------------------------------|

     T    T        T    T        T    T        T     T
B|-------------------------------------------------------------|
G|--------------------------------------------14p11-14p11p9h11-|
D|------------------------------12p9-12p9p6h9------------------|
A|----------------11p8-11p8p5h8--------------------------------|
E|--10p7-10p7p4h7----------------------------------------------|
E|-------------------------------------------------------------|


[Guitar Solo]

   A5
         PM----|      PM----|    PM--|     PM--------|     PM--------|    PM--|       
E|---------------------------------------------------------------------------------|
B|---------------------------------------------------------------------------------|
G|--1/2---------1/2----------1/2-------5/6------------5/6-------------5/6-----1/2--|
D|--1/2---------1/2----------1/2-------4/5------------4/5-------------4/5-----1/2--|
A|-------0---0--------0---0------0--0------0--0--0--0------0--0--0--0-----0-0------|
E|---------------------------------------------------------------------------------|
  |    1        1        1        1~~~          1/2  1/2  1/2              1~~~~~~
E|-------17-------17-------17------------------------------------------------------|
B|--20^------20^------20^------20^-----17-19--19^--19^--19^-(19)p17----------------|
G|------------------------------------------------------------------19--19^--------| < Guitar 2
D|---------------------------------------------------------------------------------|
A|---------------------------------------------------------------------------------|
E|---------------------------------------------------------------------------------|


     A5                                        C5        Csus2
    PM----|      PM----|          PM---------|
E|------------------------------------------------------------------------------------------|
B|-------------------------------------------------------3----3-----------------------------|
G|----------1/2------------1/2-----------------5---------5----5-----------------------------|
D|----------1/2------------1/2-----------------5---------5----5-----------------------------|
A|--0---0--------0---0------------0--0--0--0---3--------------------------------------------|
E|------------------------------------------------------------------------------------------|
  |                                                                                AH~~~~~~~
E|-----------17-17--------------------------------------------------------------------------|
B|-----17-20-------20-17-20-20-17----17-17----17-17-17-17-------19-19-------19-19-----------|
G|--------------------------------19-------19-------------18-17-------18----------18--------|
D|-----------------------------------------------------------------------19-----------------|
A|------------------------------------------------------------------------------------------|
E|------------------------------------------------------------------------------------------|

 
      A5
             PM-------|         PM------|       PM----------|
E|--------------------------------------------------------------------|
B|--------------------------------------------------------------------|
G|---1/2-----------------1/2--------------1/2------------------5/6----|
D|---1/2-----------------1/2--------------1/2------------------4/5----|
A|-----------0------0-----------0-----0---------0----0----0-----------|
E|--------------------------------------------------------------------|
  | \2/                  \2/             \2/
E|----------------------------------------------------------------5---|
B|--------------------------------------------------------------5-----|
G|---9h10p9h10p9h10p9h10-8h9p8h9p8h9p8h9-7h8p7h8p7h8p7h8-----6--------|
D|--------------------------------------------------------------------|
A|--------------------------------------------------------------------|
E|--------------------------------------------------------------------|


    A5
    PM-----|        PM----------|        PM------------|       PM------|
E|--------------------------------------------------------------------------------|
B|--------------------------------------------------------------------------------|
G|-------------5/6-----------------5/6--------------------5/6------------1/2------|
D|-------------4/5-----------------4/5--------------------4/5------------1/2------|
A|--0----0----------0--0--0---0----------0---0---0---0---------0-----0------------|
E|--------------------------------------------------------------------------------|
  |
E|--5-5----------------5-8p5--------8-10p8----------10-12p10----------12h15p12-x--|
B|------5-8-5-5----5h8-------9-8h10--------11-10h12----------13-12h15-------------|
G|--------------7-----------------------------------------------------------------|
D|--------------------------------------------------------------------------------|
A|--------------------------------------------------------------------------------|
E|--------------------------------------------------------------------------------|


     D5                     G5

E|------------------------------------------------------------------------------------------------------|
B|--3-----3---------------------------------------------------------------------------------------------|
G|--2-----2-----------------0---------------------------------------------------------------------------|
D|--0-----0---------x-------0---------------------------------------------------------------------------|
A|------------------x-----------------------------------------------------------------------------------|
E|--------------------------3---------------------------------------------------------------------------|
  |
E|-----------------12-17p12----------12--17-16-15-------------------------------------------------------|
B|------------------------------------------------17-16-15----------------------------------------------|
G|-----------14h17----------17h14p17-----------------------17-16-14----------17-16-14-------------------|
D|--------14--------------------------------------------------------17-16-14----------17-16-14----------|
A|--12h15--------------------------------------------------------------------------------------17-16-15-|
E|------------------------------------------------------------------------------------------------------|

              [Chorus/Guitar Solo]
     G5       A5
                   PM----|       PM----|        PM------------|
E|-------------------------------------------------------------------|
B|-------------------------------------------------------------------|
G|-(0)--------1/2----------1/2-----------1/2-------------------------|
D|-(0)--------1/2----------1/2-----------1/2-------------------------|
A|-----------------0---0---------0---0----------0---0---0---0--------|
E|-(3)---------------------------------------------------------------|
  |             1                     1                1    1  ~~~~~~
E|------------------------------5--10^----8------8--10^--10^--8------|
B|--------------------------5-8--------------10----------------------|
G|------------7^---7----5-7------------------------------------------|
D|-------------------------------------------------------------------|
A|-------------------------------------------------------------------|
E|--17-16-15---------------------------------------------------------|


      A5
         PM---------|      PM---------|      PM----|
E|------------------------------------------------------|
B|------------------------------------------------------|
G|--5/6--------------5/6----------------5/6-------------|
D|--4/5--------------4/5----------------4/5-------------|
A|-------0--0--0--0--------0--0--0--0--------0---0------|
E|------------------------------------------------------|
  |                 1                         1
E|----------------------------------------------12-15---|
B|------------13-13^-(13)------------------15^----------|
G|------12-14-------------11-14---14-12-----------------|
D|--14----------------------------------14--------------|
A|------------------------------------------------------|
E|------------------------------------------------------|


      C5
                         1
E|------------------------------------------------|
B|-------------------------------3----------------|
G|------------5--------5^-------------------------|
D|--------5-------5-------------------------------|
A|----3-------------------------------------------|
E|------------------------------------------------|
  |
E|----20-------17-17-15----15---------------------|
B|-------17-15----------17----17-16-15-17-16--15--|
G|------------------------------------------------|
D|------------------------------------------------|
A|------------------------------------------------|
E|------------------------------------------------|

   
    A5
         PM-----|       PM----|       PM---|     PM---------|      PM-----------|     PM---|       PM----|
E|--------------------------------------------------------------------------------------------------------|
B|--------------------------------------------------------------------------------------------------------|
G|--1/2------------1/2-----------1/2---------5/6--------------5/6-----------------5/6---------1/2---------|
D|--1/2------------1/2-----------1/2---------4/5--------------4/5-----------------4/5---------1/2---------|
A|--------0---0---------0---0---------0--0-------0--0--0--0--------0---0---0--0-------0---0--------0---0--|
E|--------------------------------------------------------------------------------------------------------|
  |     1        1        1            1       1      1            1            1            1 
E|---------15-------15--------15-15-------------15-15--15-15-15-15--15-15-15-15--15-15-15-15--15-15-15-15-|
B|---15^------15^------15^-15-------15^-15--15^----15^-15-15-15-15^-15-15-15-15^-15-15-15-15^-15-15-15-15-|
G|--------------------------------------------------------------------------------------------------------|
D|--------------------------------------------------------------------------------------------------------|
A|--------------------------------------------------------------------------------------------------------|
E|--------------------------------------------------------------------------------------------------------|


      A5                                                  D5              G5
           PM----|         PM-----|        PM-----|
E|-------------------------------------------------------------------------------------|
B|-------------------------------------------------------3----3------------------------|
G|---1/2------------1/2---------------1/2----------------2----2-----------0------------|
D|---1/2------------1/2---------------1/2----------------0----0----x------0------------|
A|---------0---0-----------0----0----------0----0------------------x-------------------|
E|------------------------------------------------------------------------3------------|
  |    1            1            1            1                              1 
E|--15--15-15-15-15--15-15-15-15--15-15-15-15--15-15-15--------------------------------|
B|--15^-15-15-15-15^-15-15-15-15^-15-15-15-15^-15-15-15-----13----13------15^----15----|
G|-------------------------------------------------------------14-----14---------------|
D|-------------------------------------------------------------------------------------|
A|-------------------------------------------------------------------------------------|
E|-------------------------------------------------------------------------------------|


   Eb5 E5  Eb5 E5 Eb5 E5 Eb5 E5  Eb5 E5 Eb5 E5  Eb5 E5 Eb5 E5  (can't fit these in!) 

E|---------------------------------------------------------|
B|---------------------------------------------------------|
G|--8/9-----8/9-----8/9--8/9-----8/9-----8/9-----8/9--8/9--|
D|--8/9-----8/9-----8/9--8/9-----8/9-----8/9-----8/9--8/9--|
A|--6/7-----6/7-----6/7--6/7-----6/7-----6/7-----6/7--6/7--|
E|-------0-------0------------0-------0-------0------------|
  |    1
E|---------------------------------------------------------|
B|--15^----------------------------------------------------|
G|---------------------------------------------------------| Guitar 2 out
D|---------------------------------------------------------|
A|---------------------------------------------------------|
E|---------------------------------------------------------|


   Eb5 E5  Eb5 E5 Eb5 E5 Eb5 E5  Eb5 E5 Eb5 E5  Eb5 E5 Eb5 E5   

E|---------------------------------------------------------|
B|---------------------------------------------------------|
G|--8/9-----8/9-----8/9--8/9-----8/9-----8/9-----8/9--8/9--|
D|--8/9-----8/9-----8/9--8/9-----8/9-----8/9-----8/9--8/9--|
A|--6/7-----6/7-----6/7--6/7-----6/7-----6/7-----6/7--6/7--|
E|-------0-------0------------0-------0-------0------------|


     A5
         PM---|     PM---|    PM--|    PM------|   PM------|   PM----|      PM
E|---------------------------------------------------------------------------------------|
B|---------------------------------------------------------------------------------------|
G|--1/2--------1/2--------1/2------5/6---------5/6---------5/6-----------2--------2------|
D|--1/2--------1/2--------1/2------4/5---------4/5---------4/5--------4--------2-----2---|
A|-------0--0-------0--0------0-0------0-0-0-0-----0-0-0-0-----0-0-5--------4--------0---|
E|---------------------------------------------------------------------------------------|
  |     1~~~~~~~~~~~~~~~~~~~~~~~~~~~~~~~~
E|---------------------------------------------------------------------------------------|
B|---20^---------------------------------------------------------------------------------|
G|---------------------------------------------------------------------------------------|
D|---------------------------------------------------------------------------------------| Guitar 2 out
A|---------------------------------------------------------------------------------------|
E|---------------------------------------------------------------------------------------|


[Outro]

    G5 (C)   G5 (B)   G5
       PM---|   PM---|
E|--------------------3----------------------------------------------------------|
B|--------------------3----------------------------------------------------------|
G|--0--------0--------0----------------------------------------------------------|
D|--0--------0--------0----------------------------------------------------------|
A|-----3--3-----2--2-------------------------------------------------------------|
E|--------------------3----------------------------------------------------------|

                    One thing that got through to me, was her body chemistry
                                         Teach - er's pet         Teach - er's pet

                    Purely scientifically,  studied her anatomy
                              God only knows       that's what you do to me

                   Ohhhhhhh nooooo, oooooh, ooooooooh

*********************

| x   Dead note
| /   Slide up
| \   Slide down
| ^   Bend (length above staff)
|(3)  Ghost note, held note or release bend
| PM  Palm mute
| ~   Vibrato
| h   Hammer-on
| p   Pull-off
| T   Right-handed tap
|\2/  Whammy bar dips/raises (above staff)
| AH  Artificial harmonic
00:00 / 00:00
Outros vídeos desta música
Repetir
Outros vídeos desta música
24 exibições
    • ½ Tom
    • Am
    • Bbm
    • Bm
    • Cm
    • C#m
    • Dm
    • Ebm
    • Em
    • Fm
    • F#m
    • Gm
    • G#m
  • Adicionar à lista

Afinação da cifra

Afinador online

    0 comentários

    Ver todos os comentários

    Entre para o Cifra Club PRO

    Tenha acesso a benefícios exclusivos no App e no Site

    • Chega de anúncios

    • Mais recursos no app do Afinador

    • Atendimento Prioritário

    • Aumente seu limite de lista

    • Ajude a produzir mais conteúdo

    00:00 / 00:00

    Cifra Club Pro

    Aproveite o Cifra Club com benefícios exclusivos e sem anúncios
    Cifra Club Pro
    Aproveite o Cifra Club com benefícios exclusivos e sem anúncios
    OK