Cifra Club

Second Chance Intro

Faber Drive

Cifra: Principal (violão e guitarra)
Tom: G
------------------------------------|
--------12-----12-----7---9---7---9-|
--9-9-9----9-9----9-9---9---9---9---|x2
------------------------------------|
------------------------------------|
------------------------------------|

------------------------------------|
------------------------------------|
----------10----9----------12----9--|
---9-9-9-----9----9--9-9-9----9-----|
------------------------------------|
------------------------------------|

then repeat the first part once........Should be pretty close...
 also played in the chours..


 _____       _____
|           |
|           |    ___
|______     |_____|
exibições 619
Acordes para:

    0 comentários

    mostrar mais comentários

    Conseguiu tocar?

    0 tocaram 0 ainda não

    Grave um vídeo tocando Second Chance Intro e mande pra gente!

    00:00 / 00:00
    outros vídeos desta música
    repetir qualidade Automático
    Outros vídeos desta música
    00:00 / 00:00
    Automático
    OK