Cifra Club

Sorte Das Mares

Fabriccio

Cifra: Principal (violão e guitarra)
tom: G
[Intro] E7M(9)  Eb7M(9)  D7M(9)
        E7M(9)  Eb7M(9)  D7M(9)

[Tab - Intro]

Parte 1 de 2
     E7M(9)      E7M(9)  Eb7M(9)  D7M(9)      
E|------------------------------------------|
B|----7------------7------6------5----------|
G|----8------------8------7------6----------|
D|----6------------6------5------4----------|
A|----7------------7------6------5----------|
E|------------------------------------------|

Parte 2 de 2
     E7M(9)      E7M(9)  Eb7M(9)  D7M(9)      
E|------------------------------------------|
B|----7------------7------6------5----------|
G|----8------------8------7------6----------|
D|----6------------6------5------4----------|
A|----7------------7------6------5----------|
E|------------------------------------------|

[Primeira Parte]

   E7M(9) 
Eu quis nascer mil vezes mais
   C7M(9) 
Só pra aprender a ser o que você mais quer
   E7M(9)
Eu quis pra mim o azul do mar
   C7M(9)
Só pra enfrentar contigo a sorte das marés

[Pré-Refrão]

        Am7
Mas não deu
                     Bm7             Bbm7
E o coração perdeu o norte nesse mar
      Am7
E eu bem sei
                          Bm7 
Que o seu destino já se encontra em outro cais

( E7M(9)  Eb7M(9)  D7M(9)  Eb7M(9) )
( E7M(9)  Eb7M(9)  D7M(9)  Eb7M(9) )

[Tab - Passagem]

Parte 1 de 2
     E7M(9)     E7M(9)  Eb7M(9)  D7M(9)    Eb7M(9)
E|------------------------------------------|
B|----7---------7-7----6----5----5-5---6----|
G|----8---------8-8----7----6----6-6---7----|
D|----6---------6-6----5----4----4-4---5----|
A|----7---------7-7----6----5----5-5---6----|
E|------------------------------------------|

Parte 2 de 2
    E7M(9)      E7M(9)  Eb7M(9)  D7M(9)
E|------------------------------------------|
B|----7---------7-7----6-----5----5---------|
G|----8---------8-8----7-----6----6---------|
D|----6---------6-6----5-----4----4---------|
A|----7---------7-7----6-----5----5---------|
E|------------------------------------------|

[Primeira Parte]

   E7M(9) 
Eu quis nascer mil vezes mais
   C7M(9) 
Só pra aprender a ser o que você mais quer
   E7M(9)
Eu quis pra mim o azul do mar
   C7M(9)
Só pra enfrentar contigo a sorte das marés

[Pré-Refrão]

        Am7
Mas não deu
                     Bm7               Bbm7
E o coração perdeu o norte nesse mar
      Am7
E eu bem sei
                         Bm7 
Que o seu destino já se encontra em outro cais

[Refrão]

    C7M
Me emaranhar nos seus ex cachos
  Em7                       D7
E ter teu corpo junto ao meu
  C7M
Aquele som que anima o dia
    Em7                    D7
E aquele anel que tu me deu

    C7M
Me emaranhar nos seus ex cachos
  Em7                       D7
E ter teu corpo junto ao meu
  C7M
Aquele som que anima o dia
    Em7                    D7
E aquele anel que tu me deu

[Final] C7M  Em7  D7
        C7M  E7M(9)  Eb7M(9)  D7M(9)
        E7M(9)  Eb7M(9)  D7M(9)
00:00 / 00:00
Outros vídeos desta música
Repetir
Outros vídeos desta música
Composição de Fabriccio
Colaboração e revisão:
  • Gabriel Marinho
12 exibições
    • ½ Tom
    • A
    • Bb
    • B
    • C
    • Db
    • D
    • Eb
    • E
    • F
    • F#
    • G
    • Ab
  • Adicionar à lista

    0 comentários

    Ver todos os comentários

    Conseguiu tocar?

    0 Tocaram 0 Ainda não

    Grave um vídeo tocando Sorte Das Mares e nos envie!

    00:00 / 00:00

    Cifra Club Pro

    Aproveite o Cifra Club com benefícios exclusivos e sem anúncios
    Cifra Club Pro
    Aproveite o Cifra Club com benefícios exclusivos e sem anúncios
    OK