Cifra Club

Abandonada

Fafá de Belém

Cifra: Principal (violão e guitarra)
Selo Cifra Club: esta cifra foi revisada para atender aos critérios oficiais da nossa Equipe de Qualidade.
tom: F# (forma dos acordes no tom de D) Capotraste na 4ª casa
[Intro] D  A/C#  Em  A/C#
        D  A/C#  Em  A/C#

[Tab - Solo Intro]

Parte 1 de 4
E|---5-----5-----5----5-----5-----5/--------|
B|-----7-----7----------7-----7-------------|
G|-7-----7-----7----6-----6-----6-----------|
D|------------------------------------------|
A|------------------------------------------|
E|------------------------------------------|

Parte 2 de 4
E|---3-----3-----3-----5-----5--------------|
B|-----5-----5-----------5-----5------------|
G|-4-----4-----4---4/6-----6-----6----------|
D|------------------------------------------|
A|------------------------------------------|
E|------------------------------------------|

Parte 3 de 4
E|---5-----5-----5----5-----5---------3-----|
B|-----7-----7----------7-----7---------5---|
G|-7-----7-----7----6-----6-----6-5-4-----4-|
D|------------------------------------------|
A|------------------------------------------|
E|------------------------------------------|

Parte 4 de 4
E|-3---------5---7/9----9---14--------------|
B|---5----------------------15--------------|
G|-----4/6-6---7------9-----14--------------|
D|------------------------------------------|
A|------------------------------------------|
E|------------------------------------------|

[Primeira Parte]

                    A/C# 
Abandonada por você 
Bm                        A/C# 
   Tenho tentado te esquecer
G                         D/F#      
  No fim da tarde uma paixão
                        Em
No fim da noite uma ilusão
                         A7(4)  A7
No fim de tudo a solidão
D                     A/C# 
  Apaixonada por você
Bm                       A/C#
   Tenho tentado não sofrer
G                       D/F#          
  Lendo antigas poesias
                      Em
Rindo em novas companhias
A7(4/9)                 D   D/C#
        E chorando por você

[Pré-Refrão]

   Bm            F#m           
Mas você não vem
                G
Nem leva com você
              D   A/C#
Toda essa saudade
Bm                  F#m         
   Nem sei mais de mim 
               E
Onde vou assim
               A7(4)  A7
Fugindo da verdade

[Refrão]

D                   Em 
  Abandonada por você
A7                   D  A/C#
   Apaixonada por você
Bm                               Em   
   Sem outro porto ou outro cais
                           A
Sobrevivendo aos temporais
                       D  G  A7
Essa paixão ainda me guia

D                     Em 
  Abandonada por você
A7                   D  A/C#
   Apaixonada por você
Bm                          Em                
   Eu vejo o vento te levar 
              G               A
Mas tenho estrelas pra sonhar
                        G  D/F#  Em  D
E ainda te espero todo dia

[Solo] G  D/F#  Em
       A  D  A/C#

[Pré-Refrão]

 Bm              F#m           
Mas você não vem
                G
Nem leva com você
 A            D   A/C#
Toda essa saudade
Bm                  F#m         
   Nem sei mais de mim 
               E
Onde vou assim
               A7(4)  A7
Fugindo da verdade

[Refrão]

D                     Em 
  Abandonada por você
A7                D  A/C#
Apaixonada por você
Bm                               Em   
   Sem outro porto ou outro cais
        G                  A
Sobrevivendo aos temporais
                       D  G  A7
Essa paixão ainda me guia

D                     Em 
  Abandonada por você
A7             D       A/C#
   Apaixonada por você
Bm                          Em                
   Eu vejo o vento te levar 
              G               A7
Mas tenho estrelas pra sonhar
                        G  
E ainda te espero todo dia

[Final] D/F#  Em7  A7(4)  A7  D
        G  D/F#  Em7  A7(4)  A7  D
00:00 / 00:00
Outros vídeos desta música
Repetir
Outros vídeos desta música
70.802 exibições
  • Simplificar cifra
    • ½ Tom
    • A
    • Bb
    • B
    • C
    • Db
    • D
    • Eb
    • E
    • F
    • F#
    • G
    • Ab
  • Adicionar à lista

Afinação da cifra

Afinador online

    0 comentários

    Ver todos os comentários

    Entre para o Cifra Club PRO

    Tenha acesso a benefícios exclusivos no App e no Site

    • Chega de anúncios

    • Mais recursos no app do Afinador

    • Atendimento Prioritário

    • Aumente seu limite de lista

    • Ajude a produzir mais conteúdo

    00:00 / 00:00

    Cifra Club Pro

    Aproveite o Cifra Club com benefícios exclusivos e sem anúncios
    Cifra Club Pro
    Aproveite o Cifra Club com benefícios exclusivos e sem anúncios
    OK