Cifra Club

Foi Assim

Fafá de Belém

Cifra: Principal (violão e guitarra)
Selo Cifra Club: esta cifra foi revisada para atender aos critérios oficiais da nossa Equipe de Qualidade.
tom: A
[Intro] Fm7  Bb7  Eb7M  Cm
        Cm/Bb  Ab7M  D7  G7  C7

[Tab - Solo - Intro] 
 
E|-----------6----------------|
B|6h8--6----6-9/8-6---5/6-----|
G|-----------------8-7----8---|
D|------6------------------5--|
A|----------------------------|
E|----------------------------|

E|----------------------------|
B|---9-8-6--------------------|
G|-8-------8-7-5--7/8--7------|
D|----------------------6-----|
A|----------------------------|
E|----------------------------|

E|----------------------------|
B|-8-6-------6~-----5-6-8-----|
G|7---8-7-6-7----5-7----------|
D|----------------------------|
A|----------------------------|
E|----------------------------|

E|-----------6----------------|
B|6h8--6----6-9/8-6---5/6-----|
G|-----------------8-7----8---|
D|------6------------------5--|
A|----------------------------|
E|----------------------------|

E|----------------------------|
B|---9-8-6--------------------|
G|-8-------8-7-5--7/8--7------|
D|----------------------6-----|
A|----------------------------|
E|----------------------------|

E|----------------------------|
B|-8-6------------------------|
G|7---8-7-5/7-7~--------------|
D|----------------------------|
A|----------------------------|
E|----------------------------|

Cm
  Foi assim
                 Ab7M
Como um resto de sol no mar
                Fm
Como a brisa na préamar
Fm/Eb           Dm7 G7(9)- G7
Nós chegamos ao fim

Cm
Foi assim
                   Ab7M
Quando a flor ao luar se deu
                   Fm
Quando o mundo era quase meu
Fm/Eb           Dm7 G7(9)-
Tu te fostes de mim

Cm7(9)
Volta meu bem, murmurei
                   Ab7M
Volta meu bem, repeti
Fm                     Ab7M  Gm
Não há canção nos teus olhos
Fm           Fm/Eb  Dm7  G7(9)-
Nem há manhã nesse adeus

( Fm7  Bb7  Eb7M  Cm )
( Cm/Bb  Ab7M  D7  G7  C7 )

Cm           Cm/Bb D/F#   Gm     F#7(5-)
Horas, dias, meses se   passando
Ebm7      Ab7          Db7M       Bbm7
E nesse passar, uma ilusão guardei
Fm7        Bb7        Eb7M
Ver-te novamente na varanda
Bb/D   Cm       Cm/Bb  Ab7M
A voz sumida em quase  pranto
       Fm    Fm/Eb        Dm7  G7(9)
A me dizer, meu    bem, voltei!

Cm        Cm/Bb     D/F#   Gm   F#7(5-)
Hoje esta ilusão se fez em nada
Ebm7      Ab7          Db7M     Bbm7
E a te beijar, outra mulher eu vi
Fm7        Bb7        Eb7M
Vi no seu olhar envenenado
Bb/D     Cm      Cm/Bb Ab7M
O mesmo olhar do meu passado
          Fm       Fm/Eb   Dm7  G7(9)
E soube então, que te perdi
Outros vídeos desta música
49.014 exibições
    • ½ Tom
    • A
    • Bb
    • B
    • C
    • Db
    • D
    • Eb
    • E
    • F
    • F#
    • G
    • Ab
  • Adicionar à lista

Afinação da cifra

Afinador online

    0 comentários

    Ver todos os comentários

    Entre para o Cifra Club PRO

    Tenha acesso a benefícios exclusivos no App e no Site

    • Chega de anúncios

    • Mais recursos no app do Afinador

    • Atendimento Prioritário

    • Aumente seu limite de lista

    • Ajude a produzir mais conteúdo

    Cifra Club Pro

    Aproveite o Cifra Club com benefícios exclusivos e sem anúncios
    Cifra Club Pro
    Aproveite o Cifra Club com benefícios exclusivos e sem anúncios
    OK