Cifra Club

Aprenda

Deslizes

Fagner

Cifra: Tom-original-com-tablatura (violão e guitarra)
tom: E
(intro) B  F#/Bb  Abm  Abm/F#  E  Ebm  C#m  F#

E|--------------------------------------|
B|-/12~~-11h12p11-----------------------|
G|----------------11-11/13~~--11h13p11--|
D|--------------------------------------|
A|--------------------------------------|
E|--------------------------------------|

E|---------------------------|
B|---------------------------|
G|---8/9~~--8h9p8------------|
D|-9--------------9--9/11~~--|
A|---------------------------|
E|---------------------------|

E|-------------------------------|
B|----------------------11/14~~--|
G|--------11h13---11h13----------|
D|--11-13------------------------|
A|-------------------------------|
E|-------------------------------|

E|--------------------------------------|
B|-/12~~-11h12p11-----------------------|
G|----------------11-11/13~~--11h13p11--|
D|--------------------------------------|
A|--------------------------------------|
E|--------------------------------------|

E|---------------------------|
B|---------------------------|
G|---8/9~~--8h9p8------------|
D|-9--------------9--9/11~~--|
A|---------------------------|
E|---------------------------|

       B
Não sei porque
          Ebm        Abm  Abm/F#
Insisto tanto em te querer
          F#m7        B7/9          E
Se você sempre faz de mim o que bem quer
         C#m     C#m7+    C#m7   C#m6
Se ao teu lado sei tão pouco de você
         E7           F#7            B  F#7
É pelos outros que eu sei quem você é

           B             Ebm
Eu sei de tudo com quem andas
     Abm  Abm7
Aonde vais
         F#m7          B7/9
Mas eu desfaço o meu ciúme
       E
Mesmo assim
          C#m     C#m7+    C#m7   C#m6
Pois aprendi que o meu silêncio vale mais
          E            F#              B  B7
E desse jeito eu vou trazer você pra mim

         E          F#            Abm  B7
E como prêmio eu recebo o teu abraço
       E            F#          Abm  B7
Subornando o meu desejo tão antigo

E|-----------------------------------------|
B|--14b15r14-12-14b15r14b15~~--15r14-12~~--|
G|-----------------------------------------|
D|-----------------------------------------|
A|-----------------------------------------|
E|-----------------------------------------|

            E           F#
E fecho os olhos para todos
          Abm  Abm7
Os teus passos

E|---------------------------------------|
B|--12b14-14r12-12--12b14-14r12-12--11~~-|
G|---------------------------------------|
D|---------------------------------------|
A|---------------------------------------|
E|---------------------------------------|

      C#m         F#7
Me enganando só assim somos amigos

( B  F#/Bb  Abm  Abm/F#  E  Ebm  C#m  F# )

E|--------------------------------------|
B|-/12~~-11h12p11-----------------------|
G|----------------11-11/13~~--11h13p11--|
D|--------------------------------------|
A|--------------------------------------|
E|--------------------------------------|

E|---------------------------|
B|---------------------------|
G|---8/9~~--8h9p8------------|
D|-9--------------9--9/11~~--|
A|---------------------------|
E|---------------------------|

             B         Ebm            Abm  Abm7
Por quantas vezes me dá raiva de querer
     F#m7               B7/9            E
Em concordar com tudo o que você me faz
          C#m     C#m7+    C#m7   C#m6
Já fiz de tudo pra tentar te esquecer
        E             F#               B  F#7
Falta coragem para dizer que nunca mais

E|------------------|
B|--14b16r14--------|
G|-----------11~~~--|
D|------------------|
A|------------------|
E|------------------|

            B             Ebm
Nós somos cúmplices, nós dois
        Abm   Abm7
Somos culpados
           F#m7                 B7/9
No mesmo instante em que teu corpo
         E
Toca o meu
          C#m     C#m7+    C#m7   C#m6
Já não existe nem o certo nem errado
    F#7                         B  B7
Só o amor que por encanto aconteceu
        E             F#              Abm   B7
E é só assim que eu perdôo os teus deslizes

E|-----------------------------|
B|--14b15r14-12-14b15r14b15~~--|
G|-----------------------------|
D|-----------------------------|
A|-----------------------------|
E|-----------------------------|

     E              F#       Abm  B7
E é assim o nosso jeito de viver

E|--------------12-14--12h14p12\11--~------|
B|--14b16-16-16--------------------14-12~~-|
G|-----------------------------------------|
D|-----------------------------------------|
A|-----------------------------------------|
E|-----------------------------------------|

           E          F#           Abm
Em outros braços tu resolves tuas crises

E|------------------------------|
B|--14b15r14-12-14b15r14b15~~---|
G|------------------------------|
D|------------------------------|
A|------------------------------|
E|------------------------------|

           C#m
Em outras bocas
      F#7
Não consigo te esquecer

( B  F#/Bb  Abm  Abm/F#  E  Ebm  C#m  F# )

E|--------------------------------------|
B|-/12~~-11h12p11-----------------------|
G|----------------11-11/13~~--11h13p11--|
D|--------------------------------------|
A|--------------------------------------|
E|--------------------------------------|

E|---------------------------|
B|---------------------------|
G|---8/9~~--8h9p8------------|
D|-9--------------9--9/11~~--|
A|---------------------------|
E|---------------------------|

E|-------------------------------|
B|----------------------11/14~~--|
G|--------11h13---11h13----------|
D|--11-13------------------------|
A|-------------------------------|
E|-------------------------------|

E|--------------------------------------|
B|-/12~~-11h12p11-----------------------|
G|----------------11-11/13~~--11h13p11--|
D|--------------------------------------|
A|--------------------------------------|
E|--------------------------------------|

E|---------------------------|
B|---------------------------|
G|---8/9~~--8h9p8------------|
D|-9--------------9--9/11~~--|
A|---------------------------|
E|---------------------------|
Composição de Michael Sullivan / Paulo Massadas
Colaboração e revisão:
  • Gilson Feitosa
  • João Belleza
  • Alex Belini
17.828 exibições
    • ½ Tom
    • A
    • Bb
    • B
    • C
    • Db
    • D
    • Eb
    • E
    • F
    • F#
    • G
    • Ab
  • Adicionar à lista

    0 comentários

    Ver todos os comentários

    Conseguiu tocar?

    0 Tocaram 1 Ainda não

    Grave um vídeo tocando Deslizes e nos envie!

    00:00 / 00:00
    outros vídeos desta música
    repetir qualidade Automático
    Outros vídeos desta música
    00:00 / 00:00
    Automático

    Cifra Club Pro

    Aproveite o Cifra Club com benefícios exclusivos e sem anúncios
    Cifra Club Pro
    Aproveite o Cifra Club com benefícios exclusivos e sem anúncios
    OK