Enviar cifraEntrar

Romance no Deserto

Fagner

Cifra: Principal
exibições 142.451
Tom: G
G                               D
Eu tenho a boca que arde como o sol
                    G   C G
O rosto e a cabeça quente
                       D
Com Madalena vou-me embora
  C                        G   C G
Agora ninguém vai pegar a gente
                              D
Dei minha viola num pedaço de pão
C                          G   C G
Um esconderijo e uma aguardente 
                              D
Mas um dia eu arranjo outra viola
       C                        G  C G
E na viagem vou cantar pra Madalena

G                  D
Não chore não querida esse deserto finda
 Am                  C         G  C G
Tudo aconteceu e eu nem me lembro
                 D                     Am
Me abraça minha vida me leva em teu cavalo 
   C                     G  C G
E logo no paraíso chegaremos 

G                           D
Vejo cidades fantasmas e ruínas
         C               G   C G
À noite escuto o seu lamento
                           D
São pesadelos e aves de rapina
    C                        G   C G
No sol vermelho do meu pensamento
                                       D
Será que eu dei um tiro no cara da cantina
            C                     G C G
Será que eu mesmo acertei seu peito
                            D
Vem vamos voando minha Madalena 
   C                               G  C G
O que passou passou não tem mais jeito 
                                 D
Naquela sombra vou amar a minha rede 
 C                          G   C G
E olhar os solitários viajantes
                              D
Beber cantar e matar a minha sede
     C                     G   C G
Lá longe onde tudo é verdejante

(refrão)
    G                              D
O padre vai rezar uma prece tão antiga
C                         G C G
Domingo na capela da fazenda
                            D
Brinco de ouro e botas coloridas
     C                       G
Nós dois aprisionados nessa lenda
                                  D
Ouço um trovão e penso que é um tiro
         C             G C G
A noite escura me condena
                             D
Não sei se vivo morro ou deliro
     C                     G
Depressa pega a arma Madalena
                                D
Tem uma luz por trás daquela serra
 C                           G
Mira mas não erra minha pequena
                            D
Anoite é longa e é tanta terra
      C                        G  C G
Poderemos estar mortos noutra cena


E|---77--8-8--55----44--55---4-5-4----5-4-------------------------------|
B|---88--1010-77----55--77---5-7-5----7-5-------------------------------|
G|----------------------------------------------------------------------|
D|----------------------------------------------------------------------|
A|----------------------------------------------------------------------|
E|----------------------------------------------------------------------|


E|----77--8-8---55------12-12-12---10--8--7-----------------------------|
B|----88--1010--77------13-13-13---12--10-8-----------------------------|
G|----------------------------------------------------------------------|
D|----------------------------------------------------------------------|
A|----------------------------------------------------------------------|
E|----------------------------------------------------------------------|
  • 1
  • 2
  • 3
  • 4
  • 5
  • 6
  • 7
  • 8
  • 9
  • 10
  • 11
  • 12
    Acordes para:

      0 comentários

        mostrar mais comentários

        Conseguiu tocar?

        5tocaram1ainda não

        Grave um vídeo tocando Romance no Deserto e mande pra gente!

        00:00 / 00:00
        outros vídeos desta música
        repetirqualidadeautomática
        • automática
        Outro vídeos desta música
          00:00 / 00:00
          automática
          • automática
          Acordes para:violão e guitarra
          dificuldadeexibiçõescontribuições
          fecharplay/pause subir/descer velocidade
            acordes
            fechar
            OK
            Feedback