Cifra Club

Half Moon

Failure

Cifra: Principal (violão e guitarra)
Selo Cifra Club: esta cifra foi revisada para atender aos critérios oficiais da nossa Equipe de Qualidade.
tom: E
E|---------------------------------------------------------------------------|
B|---------------------------------------------------------------------------|
G|---------------------------------------------------------------------------|
D|-----6----------6---------6---------6--------------------------------------|
A|---7---7------7---7-----7---7----------7-----------------------------------|
E|-0---------5---------4----------4---------4--------------------------------|

E|---------------------------------------------------------------------------|
B|---------------------------------------------------------------------------|
G|------8--------8-------------8-------8-------------------------------------|
D|----6--6---------6---------6--6------------6-------------------------------|
A|---------------------------------------------------------------------------|
E|-9---------9--------9---7--------7------7----------------------------------|


[Post Verse]

E|---------------------------------------------------------------------------|
B|---------------------------------------------------------------------------|
G|------6----------6---------4-----------------------------------------------|
D|----7---7-----------7---------7------6----6--------------------------------|
A|---------------------------------------------------------------------------|
E|-5-----------5----------5--------5-----5---5-------------------------------|


[Pre Chorus]

E|---------------------------------------------------------------------------|
B|---------------------------------------------------------------------------|
G|----------11------------------8--------------------------------------------|
D|-------9-----9------------6------6-----------------------------------------|
A|----7-----------7-----4----------------------------------------------------|
E|-0-------------------------------------------------------------------------|

E|---------------------------------------------------------------------------|
B|---------------------------------------0-----------------------------------|
G|-----6---------6--------4--------------------------------------------------|
D|---7---7---------7---------7------6-7-----7-6------------------------------|
A|---------------------------------------------------------------------------|
E|-5---------5---------5---------5-------------------------------------------|


[Chorus]
Not sure about this part
       
       v  ^  ^  v  ^        v  ^  ^  v  ^        v  ^  ^  v  ^        v  ^  ^  v  ^
E|----0--0--0--0--0--------4--4--4--4--4--------0--0--0--0--0--------2--2--2--2--2----------|
B|----0--0--0--0--0--------5--5--5--5--5--------2--2--2--2--2--------1--1--1--1--1----------|
G|----1--1--1--1--1--------6--6--6--6--6--------2--2--2--2--2--------2--2--2--2--2----------|
D|----2--2--2--2--2--------6--6--6--6--6--------2--2--2--2--2-------------------------------|
A|----2--2--2--2--2-----4--------------------0----------------------------------------------|
E|-0--------------------------------------------------------------2-------------------------|


[Outro]
repeat first bar of verse then end on last strum

E|-0~-------------------------------------------------------------------------|
B|-0~-------------------------------------------------------------------------|
G|-4~-------------------------------------------------------------------------|
D|-6~-------------------------------------------------------------------------|
A|-7~-------------------------------------------------------------------------|
E|-0~-------------------------------------------------------------------------|
Outros vídeos desta música
      • ½ Tom
      • A
      • Bb
      • B
      • C
      • Db
      • D
      • Eb
      • E
      • F
      • F#
      • G
      • Ab
    • Adicionar à lista

    Afinação da cifra

    Afinador online

      0 comentários

      Ver todos os comentários

      Entre para o Cifra Club PRO

      Tenha acesso a benefícios exclusivos no App e no Site

      • Chega de anúncios

      • Badges exclusivas

      • Mais recursos no app do Afinador

      • Atendimento Prioritário

      • Aumente seu limite de lista

      • Ajude a produzir mais conteúdo

      Cifra Club Pro

      Aproveite o Cifra Club com benefícios exclusivos e sem anúncios
      Cifra Club Pro
      Aproveite o Cifra Club com benefícios exclusivos e sem anúncios
      OK