Cifra Club

Muffled Snaps

Failure

Cifra: Principal (violão e guitarra)
Selo Cifra Club: esta cifra foi revisada para atender aos critérios oficiais da nossa Equipe de Qualidade.
tom: Bm
E|E|-----------------------------------------------------------------||
Muffled Snaps - Failure
E|E|-----------------------------------------------------------------||
Tabbed by:John Anderson

Tuning: ½ step down

LISTEN TO SONG FOR STRUME NG PATTERN


[Intro] (palm mute) for VERSE/OUTRO play without mutes

E|---------------------------------------------------------------|
B|---------------------------------------------------------------|
G|---2-2-2-2-/-4-4-4-4---4-4-4-4-/-3-3-3-3-/-2-2-2-2-------------|
D|-----------------------0-0-0-0---0-0-0-0---0-0-0-0-------------|
A|---2-2-2-2-/-4-4-4-4-------------------------------------------|
E|-----------------------4-4-4-4-/-3-3-3-3-/-2-2-2-2-------------|


[Chorus]

E|---------------------------------------------------------------|
B|---------------------------------------------------------------|
G|--7-7-7-7------------------------------------------------------|
D|--7-7-7-7-6-6-6-6-7-7-7-7--------------------------------------|
A|--5-5-5-5-6-6-6-6-7-7-7-7--------------------------------------|
E|----------4-4-4-4-5-5-5-5--------------------------------------|

E|---------------------------------------------------------------|
B|---------------------------------------------------------------|
G|--7-7-7-7------------------------------------------------------|
D|--7-7-7-7-6-6-6-6-8-8-8-8--------------------------------------|
A|--5-5-5-5-6-6-6-6-8-8-8-8--------------------------------------|
E|----------4-4-4-4-6-6-6-6--------------------------------------|


[Pre-Solo]

E|-------------------------------------------------------------|
B|-------------------------------------------------------------|
G|------------4------------------------------------------------|
D|-5-5-5-5----4----3-3-3-3-4-4-4-4-----------------------------|
A|-5-5-5-5----2----3-3-3-3-4-4-4-4-----------------------------|
E|-3-3-3-3-0-----0-1-1-1-1-2-2-2-2-----------------------------|


[Solo]

E|---------------------------------------------------------------|
B|---------------------------------------------------------------|
G|-4/7-6-----5-4-------------------------------------------------|
D|-------7-------5-4-5-4/8---------------------------------------|
A|---------------------------------------------------------------|
E|---------------------------------------------------------------|

E|---------------------------------------------------------------|
B|---------------------------------------------------------------|
G|-7-6----5-4----------------------------------------------------|
D|------7-------5-4-5-/8-8-8-8-8---------------------------------|
A|---------------------------------------------------------------|
E|---------------------------------------------------------------|

E|---------------------------------------------------------------|
B|---------------------------------------------------------------|
G|-4/7-6-----5-4-------------------------------------------------|
D|--------7-------5-4-5-4/8--------------------------------------|
A|---------------------------------------------------------------|
E|---------------------------------------------------------------|

E|---------------------------------------------------------------|
B|---------------------------------------------------------------|
G|-7-6----5-4----------------------------------------------------|
D|------7-------5-4-5-/8-(f| eedback)------------------------------|
A|---------------------------------------------------------------|
E|---------------------------------------------------------------|

E|---------------------------------------------------------------|
B|-12-12-12-/-13-13-13-/-14--14--14------------------------------|
G|---------------------------------------------------------------|
D|-9-9-9--/-10-10-10-/---11--11-11-------------------------------|
A|---------------------------------------------------------------|
E|---------------------------------------------------------------|

E|-14-14-14-/-15-15-15-/-16-16-16-16-----------------------------|
B|---------------------------------------------------------------|
G|-11-11-11-/-12-12-12-/-13-13-13-13-----------------------------|
D|---------------------------------------------------------------|
A|---------------------------------------------------------------|
E|---------------------------------------------------------------|
Outros vídeos desta música
    4 exibições
      • ½ Tom
      • Am
      • Bbm
      • Bm
      • Cm
      • C#m
      • Dm
      • Ebm
      • Em
      • Fm
      • F#m
      • Gm
      • G#m
    • Adicionar à lista

    Afinação da cifra

    Afinador online

      0 comentários

      Ver todos os comentários

      Entre para o Cifra Club PRO

      Tenha acesso a benefícios exclusivos no App e no Site

      • Chega de anúncios

      • Badges exclusivas

      • Mais recursos no app do Afinador

      • Atendimento Prioritário

      • Aumente seu limite de lista

      • Ajude a produzir mais conteúdo

      Cifra Club Pro

      Aproveite o Cifra Club com benefícios exclusivos e sem anúncios
      Cifra Club Pro
      Aproveite o Cifra Club com benefícios exclusivos e sem anúncios
      OK