Cifra Club

Saturday Saviour

Failure

Cifra: Principal (violão e guitarra)
Selo Cifra Club: esta cifra foi revisada para atender aos critérios oficiais da nossa Equipe de Qualidade.
tom: D
Intro                                        0:36                                             0:43
E|----------------------------------------------|------------------------------------------------|
B|----------------------------------------------|------------------------------------------------|
G|----------------------------------------------|------------------------------------------------|
D|-4--4--4\2--2-2--2--2/7--7--7--7\5--5-5--5--5-|-4--4--4\2--2-2--2--2/7--7--7--7\5--5-5--5--5-5-|
A|-5--5--5\3--3-3--3--3/8--8--8--8\6--6-6--6--6-|-5--5--5\3--3-3--3--3/8--8--8--8\6--6-6--6--6-6-|
E|-5--5--5\3--3-3--3--3/8--8--8--8\6--6-6--6--6-|-5--5--5\3--3-3--3--3/8--8--8--8\6--6-6--6--6-6-|

                                              2nd Guitar
E|-------------10-8---------8------8------------------|
B|---7-8--10-8----------/10---10-----10-8~------------|
G|/7--------------------------------------------------|
D|----------------------------------------------------|
A|----------------------------------------------------|
E|----------------------------------------------------|

Verse                                                                                           1:00
E|------------------------------------------------|------------------------------------------------|
B|------------------------------------------------|------------------------------------------------|
G|------------------------------------------------|------------------------------------------------|
D|-4--4--4\2--2-2--2--2/7--7--7--7\5--5-5--5--5-5-|-4--4--4\2--2-2--2--2/7--7--7--7\5--5-5--5--5-5-|
A|-5--5--5\3--3-3--3--3/8--8--8--8\6--6-6--6--6-6-|-5--5--5\3--3-3--3--3/8--8--8--8\6--6-6--6--6-6-|
E|-5--5--5\3--3-3--3--3/8--8--8--8\6--6-6--6--6-6-|-5--5--5\3--3-3--3--3/8--8--8--8\6--6-6--6--6-6-|

                                                                                                1:15
E|------------------------------------------------|------------------------------------------------|
B|------------------------------------------------|------------------------------------------------|
G|------------------------------------------------|------------------------------------------------|
D|-4--4--4\2--2-2--2--2/7--7--7--7\5--5-5--5--5-5-|-4--4--4\2--2-2--2--2/7--7--7--7\5--5-5--5--5-5-|
A|-5--5--5\3--3-3--3--3/8--8--8--8\6--6-6--6--6-6-|-5--5--5\3--3-3--3--3/8--8--8--8\6--6-6--6--6-6-|
E|-5--5--5\3--3-3--3--3/8--8--8--8\6--6-6--6--6-6-|-5--5--5\3--3-3--3--3/8--8--8--8\6--6-6--6--6-6-|
                                                                                 (Double these notes)


Chorus (Distortion)    
1st Guitar                                                                                        1:31
E|-------------------------------------------------|-------------------------------------------------|
B|-------------------------------------------------|-------------------------------------------------|
G|-2--2--2\0--0-0--0--0/5--5--5--5\3--3-3--3-3-3-3-|-2--2--2\0--0-0--0--0/5--5--5--5\3--3-3--3-3-3-3-|
D|-4--4--4\2--2-2--2--2/7--7--7--7\5--5-5--5-5-5-5-|-4--4--4\2--2-2--2--2/7--7--7--7\5--5-5--5-5-5-5-|
A|-5--5--5\3--3-3--3--3/8--8--8--8\6--6-6--6-6-6-6-|-5--5--5\3--3-3--3--3/8--8--8--8\6--6-6--6-6-6-6-|
E|-5--5--5\3--3-3--3--3/8--8--8--8\6--6-6--6-6-6-6-|-5--5--5\3--3-3--3--3/8--8--8--8\6--6-6--6-6-6-6-|

2nd Guitar
E|-------------------------------------------------|-------------------------------------------------|
B|-------------------------------------------------|-------------------------------------------------|
G|-2--2--2--------------5--5--5--5\3--3-3--3-3-3-3-|-2--2--2--------------5--5--5--5\3--3-3--3-3-3-3-|
D|-0--0--0-5--5-5--5--5-3--3--3--3\1--1-1--1-1-1-1-|-0--0--0-5--5-5--5--5-3--3--3--3\1--1-1--1-1-1-1-|
A|---------3--3-3--3--3----------------------------|---------3--3-3--3--3----------------------------|
E|-------------------------------------------------|-------------------------------------------------|

1st Guitar                                                                                        1:47
E|-------------------------------------------------|-------------------------------------------------|
B|-------------------------------------------------|-------------------------------------------------|
G|-2--2--2\0--0-0--0--0/5--5--5--5\3--3-3--3-3-3-3-|-2--2--2\0--0-0--0--0/5--5--5--5\3--3-3--3-3-3-3-|
D|-4--4--4\2--2-2--2--2/7--7--7--7\5--5-5--5-5-5-5-|-4--4--4\2--2-2--2--2/7--7--7--7\5--5-5--5-5-5-5-|
A|-5--5--5\3--3-3--3--3/8--8--8--8\6--6-6--6-6-6-6-|-5--5--5\3--3-3--3--3/8--8--8--8\6--6-6--6-6-6-6-|
E|-5--5--5\3--3-3--3--3/8--8--8--8\6--6-6--6-6-6-6-|-5--5--5\3--3-3--3--3/8--8--8--8\6--6-6--6-6-6-6-|

2nd Guitar
E|-------------------------------------------------|-------------------------------------------------|
B|-------------------------------------------------|-------------------------------------------------|
G|-2--2--2--------------5--5--5--5\3--3-3--3-3-3-3-|-2--2--2--------------5--5--5--5\3--3-3--3-3-3-3-|
D|-0--0--0-5--5-5--5--5-3--3--3--3\1--1-1--1-1-1-1-|-0--0--0-5--5-5--5--5-3--3--3--3\1--1-1--1-1-1-1-|
A|---------3--3-3--3--3----------------------------|---------3--3-3--3--3----------------------------|
E|-------------------------------------------------|-------------------------------------------------|

Verse                                                                                           2:03
E|------------------------------------------------|------------------------------------------------|
B|------------------------------------------------|------------------------------------------------|
G|------------------------------------------------|------------------------------------------------|
D|-4--4--4\2--2-2--2--2/7--7--7--7\5--5-5--5--5-5-|-4--4--4\2--2-2--2--2/7--7--7--7\5--5-5--5--5-5-|
A|-5--5--5\3--3-3--3--3/8--8--8--8\6--6-6--6--6-6-|-5--5--5\3--3-3--3--3/8--8--8--8\6--6-6--6--6-6-|
E|-5--5--5\3--3-3--3--3/8--8--8--8\6--6-6--6--6-6-|-5--5--5\3--3-3--3--3/8--8--8--8\6--6-6--6--6-6-|

2nd Guitar         
E|------------------------------------------------|--------------------------8-10-8----------------|
B|---7-8~--\7~--------\0--------------------------|------------------------------------------------|
G|/7----------------------------------------------|------------------------------------------------|
D|------------------------------------------------|------------------------------------------------|
A|------------------------------------------------|------------------------------------------------|
E|------------------------------------------------|------------------------------------------------|

Verse                                                                                           2:19
E|------------------------------------------------|------------------------------------------------|
B|------------------------------------------------|------------------------------------------------|
G|------------------------------------------------|------------------------------------------------|
D|-4--4--4\2--2-2--2--2/7--7--7--7\5--5-5--5--5-5-|-4--4--4\2--2-2--2--2/7--7--7--7\5--5-5--5--5-5-|
A|-5--5--5\3--3-3--3--3/8--8--8--8\6--6-6--6--6-6-|-5--5--5\3--3-3--3--3/8--8--8--8\6--6-6--6--6-6-|
E|-5--5--5\3--3-3--3--3/8--8--8--8\6--6-6--6--6-6-|-5--5--5\3--3-3--3--3/8--8--8--8\6--6-6--6--6-6-|

2nd Guitar
E|-------------------10-12-8----------------------|------------------------------------------------|
B|-------------------------------10-8-------------|----3--3-1---------------3--3-3-1---------------|
G|------------------------------------------------|----2--2-0---------------2--2-2-0---------------|
D|------------------------------------------------|------------------------------------------------|
A|------------------------------------------------|------------------------------------------------|
E|------------------------------------------------|------------------------------------------------|



Chorus (Distortion)
1st Guitar                                                                                        2:35
E|-------------------------------------------------|-------------------------------------------------|
B|-------------------------------------------------|-------------------------------------------------|
G|-2--2--2\0--0-0--0--0/5--5--5--5\3--3-3--3-3-3-3-|-2--2--2\0--0-0--0--0/5--5--5--5\3--3-3--3-3-3-3-|
D|-4--4--4\2--2-2--2--2/7--7--7--7\5--5-5--5-5-5-5-|-4--4--4\2--2-2--2--2/7--7--7--7\5--5-5--5-5-5-5-|
A|-5--5--5\3--3-3--3--3/8--8--8--8\6--6-6--6-6-6-6-|-5--5--5\3--3-3--3--3/8--8--8--8\6--6-6--6-6-6-6-|
E|-5--5--5\3--3-3--3--3/8--8--8--8\6--6-6--6-6-6-6-|-5--5--5\3--3-3--3--3/8--8--8--8\6--6-6--6-6-6-6-|

2nd Guitar
E|-------------------------------------------------|-------------------------------------------------|
B|-------------------------------------------------|-------------------------------------------------|
G|-2--2--2--------------5--5--5--5\3--3-3--3-3-3-3-|-2--2--2--------------5--5--5--5\3--3-3--3-3-3-3-|
D|-0--0--0-5--5-5--5--5-3--3--3--3\1--1-1--1-1-1-1-|-0--0--0-5--5-5--5--5-3--3--3--3\1--1-1--1-1-1-1-|
A|---------3--3-3--3--3----------------------------|---------3--3-3--3--3----------------------------|
E|-------------------------------------------------|-------------------------------------------------|

1st Guitar                                                                                        2:51
E|-------------------------------------------------|-------------------------------------------------|
B|-------------------------------------------------|-------------------------------------------------|
G|-2--2--2\0--0-0--0--0/5--5--5--5\3--3-3--3-3-3-3-|-2--2--2\0--0-0--0--0/5--5--5--5\3--3-3--3-3-3-3-|
D|-4--4--4\2--2-2--2--2/7--7--7--7\5--5-5--5-5-5-5-|-4--4--4\2--2-2--2--2/7--7--7--7\5--5-5--5-5-5-5-|
A|-5--5--5\3--3-3--3--3/8--8--8--8\6--6-6--6-6-6-6-|-5--5--5\3--3-3--3--3/8--8--8--8\6--6-6--6-6-6-6-|
E|-5--5--5\3--3-3--3--3/8--8--8--8\6--6-6--6-6-6-6-|-5--5--5\3--3-3--3--3/8--8--8--8\6--6-6--6-6-6-6-|

2nd Guitar
E|-------------------------------------------------|-------------------------------------------------|
B|-------------------------------------------------|-------------------------------------------------|
G|-2--2--2--------------5--5--5--5\3--3-3--3-3-3-3-|-2--2--2--------------5--5--5--5\3--3-3--3-3-3-3-|
D|-0--0--0-5--5-5--5--5-3--3--3--3\1--1-1--1-1-1-1-|-0--0--0-5--5-5--5--5-3--3--3--3\1--1-1--1-1-1-1-|
A|---------3--3-3--3--3----------------------------|---------3--3-3--3--3----------------------------|
E|-------------------------------------------------|-------------------------------------------------|


Solo
1st Guitar                                                                                     3:07
E|------------------------------------------------------------------------------------------------|
B|------------------------------------------------------------------------------------------------|
G|------------------------------------------------------------------------------------------------|
D|-4----------------2----------------4--------------2---------------------------------------------|
A|-5----------------3----------------5--------------3---------------------------------------------|
E|-5----------------3----------------5--------------3---------------------------------------------|

2nd Guitar    (Sweep)
E|-10-8--10------8--12--12--8----------10--8------------------------------------------------------|
B|-------------10---10--10----8---8-10--------------10p8--8\7--7\5--5\3---3--3--------------------|
G|--------------------------------------------------0---0----0----0----0--0--0--------------------|
D|------------------------------------------------------------------------------------------------|
A|------------------------------------------------------------------------------------------------|
E|------------------------------------------------------------------------------------------------|

3rd Guitar
E|-17---------------------------------------------------------------------------------------------|
B|--19-------------14-14-14-14-14-------------------14-14-14-14-14--------------------------------|
G|------------------12-12-12-12-12-12----------------12-12-12-12-12-12----------------------------|
D|-------------------14-14-14-14-14-------------------14-14-14-14-14------------------------------|
A|------------------------------------------------------------------------------------------------|
E|------------------------------------------------------------------------------------------------|

Verse                                                                                           3:23
E|------------------------------------------------|------------------------------------------------|
B|------------------------------------------------|------------------------------------------------|
G|------------------------------------------------|------------------------------------------------|
D|-4--4--4\2--2-2--2--2/7--7--7--7\5--5-5--5--5-5-|-4--4--4\2--2-2--2--2/7--7--7--7\5--5-5--5--5-5-|
A|-5--5--5\3--3-3--3--3/8--8--8--8\6--6-6--6--6-6-|-5--5--5\3--3-3--3--3/8--8--8--8\6--6-6--6--6-6-|
E|-5--5--5\3--3-3--3--3/8--8--8--8\6--6-6--6--6-6-|-5--5--5\3--3-3--3--3/8--8--8--8\6--6-6--6--6-6-|

                                                 2nd Guitar         
E|-------------------------12---------------------|
B|-------------------------------13---------------|
G|--------------------------------------14--------|
D|------------------------------------------------|
A|------------------------------------------------|
E|------------------------------------------------|

Verse                                          3:31                                             3:39
E|------------------------------------------------|------------------------------------------------|
B|------------------------------------------------|------------------------------------------------|
G|------------------------------------------------|------------------------------------------------|
D|-4--4--4\2--2-2--2--2/7--7--7--7\5--5-5--5--5-5-|-4--4--4\2--2-2--2--2/7--7--7--7\5--5-5--5--5-5-|
A|-5--5--5\3--3-3--3--3/8--8--8--8\6--6-6--6--6-6-|-5--5--5\3--3-3--3--3/8--8--8--8\6--6-6--6--6-6-|
E|-5--5--5\3--3-3--3--3/8--8--8--8\6--6-6--6--6-6-|-5--5--5\3--3-3--3--3/8--8--8--8\6--6-6--6--6-6-|

2nd Guitar
E|-12----------12-----------12----------------12------------12-----------12------------12----------|
B|--13-------------13-----------13----------------13------------13-----------13------------13------|
G|-------14------------14-----------14----------------14------------14-----------14------------14--|
D|-------------------------------------------------------------------------------------------------|
A|-------------------------------------------------------------------------------------------------|
E|-------------------------------------------------------------------------------------------------|



Chorus (Distortion)
1st Guitar                                                                                        3:55
E|-------------------------------------------------|-------------------------------------------------|
B|-------------------------------------------------|-------------------------------------------------|
G|-2--2--2\0--0-0--0--0/5--5--5--5\3--3-3--3-3-3-3-|-2--2--2\0--0-0--0--0/5--5--5--5\3--3-3--3-3-3-3-|
D|-4--4--4\2--2-2--2--2/7--7--7--7\5--5-5--5-5-5-5-|-4--4--4\2--2-2--2--2/7--7--7--7\5--5-5--5-5-5-5-|
A|-5--5--5\3--3-3--3--3/8--8--8--8\6--6-6--6-6-6-6-|-5--5--5\3--3-3--3--3/8--8--8--8\6--6-6--6-6-6-6-|
E|-5--5--5\3--3-3--3--3/8--8--8--8\6--6-6--6-6-6-6-|-5--5--5\3--3-3--3--3/8--8--8--8\6--6-6--6-6-6-6-|

2nd Guitar
E|-------------------------------------------------|-------------------------------------------------|
B|-------------------------------------------------|-------------------------------------------------|
G|-2--2--2--------------5--5--5--5\3--3-3--3-3-3-3-|-2--2--2--------------5--5--5--5\3--3-3--3-3-3-3-|
D|-0--0--0-5--5-5--5--5-3--3--3--3\1--1-1--1-1-1-1-|-0--0--0-5--5-5--5--5-3--3--3--3\1--1-1--1-1-1-1-|
A|---------3--3-3--3--3----------------------------|---------3--3-3--3--3----------------------------|
E|-------------------------------------------------|-------------------------------------------------|

1st Guitar                                                                                        4:11
E|-------------------------------------------------|-------------------------------------------------|
B|-------------------------------------------------|-------------------------------------------------|
G|-2--2--2\0--0-0--0--0/5--5--5--5\3--3-3--3-3-3-3-|-2--2--2\0--0-0--0--0/5--5--5--5\3--3-3--3-3-3-3-|
D|-4--4--4\2--2-2--2--2/7--7--7--7\5--5-5--5-5-5-5-|-4--4--4\2--2-2--2--2/7--7--7--7\5--5-5--5-5-5-5-|
A|-5--5--5\3--3-3--3--3/8--8--8--8\6--6-6--6-6-6-6-|-5--5--5\3--3-3--3--3/8--8--8--8\6--6-6--6-6-6-6-|
E|-5--5--5\3--3-3--3--3/8--8--8--8\6--6-6--6-6-6-6-|-5--5--5\3--3-3--3--3/8--8--8--8\6--6-6--6-6-6-6-|

2nd Guitar
E|-------------------------------------------------|-------------------------------------------------|
B|-------------------------------------------------|-------------------------------------------------|
G|-2--2--2--------------5--5--5--5\3--3-3--3-3-3-3-|-2--2--2--------------5--5--5--5\3--3-3--3-3-3-3-|
D|-0--0--0-5--5-5--5--5-3--3--3--3\1--1-1--1-1-1-1-|-0--0--0-5--5-5--5--5-3--3--3--3\1--1-1--1-1-1-1-|
A|---------3--3-3--3--3----------------------------|---------3--3-3--3--3----------------------------|
E|-------------------------------------------------|-------------------------------------------------|


Outro
1st Guitar                                           4:24
E|-------------------------------------------------------|
B|-------------------------------------------------------|
G|-2--2--2\0--0-0--0--0/5--5---5---5\3--3-3---3---3---2~-|
D|-4--4--4\2--2-2--2--2/7--7---7---7\5--5-5---5---5---4~-|
A|-5--5--5\3--3-3--3--3/8--8---8---8\6--6-6---6---6---5~-|
E|-5--5--5\3--3-3--3--3/8--8---8---8\6--6-6---6---6---5~-|

2nd Guitar
E|-------------------------------------------------------|
B|-------------------------------------------------------|
G|-2--2--2--------------5--5---5---5\3--3-3---3---3---2~-|
D|-0--0--0-5--5-5--5--5-3--3---3---3\1--1-1---1---1---0~-|
A|---------3--3-3--3--3-------------------------------0--|
E|-------------------------------------------------------|

| /  slide up
| \  slide down
| h  hammer-on
| p  pull-off
| ~  vibrato
| < > harmonic
| x  Mute note
Outros vídeos desta música
    15 exibições
      • ½ Tom
      • A
      • Bb
      • B
      • C
      • Db
      • D
      • Eb
      • E
      • F
      • F#
      • G
      • Ab
    • Adicionar à lista

    Afinação da cifra

    Afinador online

      0 comentários

      Ver todos os comentários

      Entre para o Cifra Club PRO

      Tenha acesso a benefícios exclusivos no App e no Site

      • Chega de anúncios

      • Mais recursos no app do Afinador

      • Atendimento Prioritário

      • Aumente seu limite de lista

      • Ajude a produzir mais conteúdo

      Cifra Club Pro

      Aproveite o Cifra Club com benefícios exclusivos e sem anúncios
      Cifra Club Pro
      Aproveite o Cifra Club com benefícios exclusivos e sem anúncios
      OK