Cifra Club

Kono Te Nobashite

Fairy Tail

Cifra: Principal (violão e guitarra)
exibições 7.767
Tom: Em
Intro:
E|---------------------------------------------------------------------------------------|
B|---------------------------------------------------------------------------------------|
G|--9/12--16--17--12--16--17~----17--12--16--17~------16-----12~------------12h14p12~----|
D|-------------------------------------------------------------------13/14---------------|
A|---------------------------------------------------------------------------------------|
E|---------------------------------------------------------------------------------------|

E|---------------------------------------------------------------------------------------|
B|---------------------------------------------------------------------------------------|
G|--9/12--16--17--12--16--17~----17--12--16--17~------16-----12~------------12h14p12~----|
D|-------------------------------------------------------------------13/14---------------|
A|---------------------------------------------------------------------------------------|
E|---------------------------------------------------------------------------------------|

E|---------------------------------------------------------------------------------------|
B|-------------------------------------------15b17r15---13~------------------------------|
G|--9/12--16--17--12--16--17~----17--12--16----------------------------------------------|
D|---------------------------------------------------------------------------------------|
A|---------------------------------------------------------------------------------------|
E|---------------------------------------------------------------------------------------|
Acordes para:
    Colaboração e revisão:
    • Junior

    0 comentários

    mostrar mais comentários

    Conseguiu tocar?

    2 tocaram 0 ainda não

    Grave um vídeo tocando Kono Te Nobashite e mande pra gente!

    00:00 / 00:00
    outros vídeos desta música
    repetir qualidade Automático
    Outros vídeos desta música
    00:00 / 00:00
    Automático
    OK