Cifra Club

Aprenda

Ignorar

Fake Number

Cifra: Principal (violão e guitarra)
Tom: E
Intro: ( E5 ) E5  F#5  C#5  A5
E|-------------------------------------
B|9-9-9-9-9-9-10-10-10-9-9-9-10-10-9-9-
G|9-9-9-9-9-9-9--9--9--9-9-9-9--9--9-9-
D|-------------------------------------
A|-------------------------------------
E|-------------------------------------

    E5
E|-------------------------------------
B|9-9-9-9-9-9-10-10-10-9-9-9---9-9-----
G|9-9-9-9-9-9-9--9--9--9-9-9---9-9-----
D|-------------------------------------
A|-------------------------------------
E|-------------------------------------

    E5 F#5 C#5
E|-------------------------------------
B|9-9-9-9-9-9-10-10-10-9-9-9-10-10-9-9-
G|9-9-9-9-9-9-9--9--9--9-9-9-9--9--9-9-
D|------------------------------------- (3x)
A|-------------------------------------
E|-------------------------------------

    A5
E|-------------------------------------
B|-12----12---12----12---12------------
G|---9-----9----9-----9----9-----------
D|-----9----9-----9----9----9----------
A|-0-----------------------------------
E|-------------------------------------


Parte 1:
E                        F#m
Faço de tudo pra tentar melhorar
C#m                       A
Quantas vezes esqueci e deixei passar
E
Nem sempre o que eu quero
F#m         C#m
é o que da, mas me escute agora
         A
eu tenho que falar

E
Sim, eu sei foi difícil
F#m
acreditar que um momento
D          A
pode fazer tudo terminar

E                        F#m
Eu tentei fui pra você melhor
                 D
do que ninguém, nossos sonhos
              A
sempre foram mais alem

Parte 1:
  Faço de tudo pra tentar melhorar....
E|-------------------------------------------------------------------
B|---9--------12----------9------12----12---12----12---12-------------
G|-----9---------9----------9-------9----9-----9----9----9------------
D|-9----------------------------------9----9-----9----9----9----------
A|----------9--------------------0------------------------------------
E|---------------------9----------------------------------------------

  Nem sempre o que eu quero ...
E|------------------------------------------------------------------------
B|------------------------------------------------------------------------
G|9-9-9-9-9-9-9-9-8-8-8-8-9-9-9-9--11-11-11-11-11-11-11-11-9-9-9-9-8-8-8-8
D|------------------------------------------------------------------------
A|7-7-7-7-7-7-7-7-6-6-6-6-7-7-7-7--9--9--9--9--9--9--9--9--7-7-7-7-6-6-6-6
E|------------------------------------------------------------------------

E|-------------------------------------------------
B|-------------------------------------------------
G|9-9-9-9-9-9-9-9-9-9-9-9-9-9-9-9--13\11--9/11-8/9-
D|-------------------------------------------------
A|7-7-7-7-7-7-7-7-7-7-7-7-7-7-7-7--11\9---7/9--6/7-
E|-------------------------------------------------

  Sim eu sei, foi dificil acreditar....
E|---------------------------------------|
B|---------------------------------------|
G|9/11-11-11-9-9-9-13-13-13-9-9-9-9-9-9-9|
D|---------------------------------------| (3x)
A|7/9--9--9--7-7-7-11-11-11-7-7-7-7-7-7-7|
E|---------------------------------------|

E|-------------|
B|-------------|
G|16\14-13-11-9|
D|-------------|
A|14\12-11-9--7|
E|-------------|

  Eu tentei...
E|---------------------------------------|
B|---------------------------------------|
G|9/11-11-11-9-9-9-13-13-13-9-9-9-9-9-9-9|
D|---------------------------------------| (2x)
A|7/9--9--9--7-7-7-11-11-11-7-7-7-7-7-7-7|
E|---------------------------------------|

E|-------------|
B|-------------|
G|16\14-13-11-9|
D|-------------|
A|14\12-11-9--7|
E|-------------|


Parte 2:
E
Foi difícil saber que era você
F#m               C#m
e não era eu lá, hoje eu
                  A
tento apenas ignorar

E                    F#m
A gente sabe e se conhece muito bem,
C#m
o bastante pra
              A
saber onde chegar

E
Sim, eu sei foi difícil
F#m
acreditar que um momento
D          A
pode fazer tudo terminar

E                        F#m
Eu tentei fui pra você melhor
                 D
do que ninguém, nossos sonhos
              A
sempre foram mais alem
Parte 2:
  A gente sabe e se conhece muito bem...
E|------------------------------------------------------------------------
B|------------------------------------------------------------------------
G|9-9-9-9-9-9-9-9-8-8-8-8-9-9-9-9--11-11-11-11-11-11-11-11-9-9-9-9-8-8-8-8
D|------------------------------------------------------------------------
A|7-7-7-7-7-7-7-7-6-6-6-6-7-7-7-7--9--9--9--9--9--9--9--9--7-7-7-7-6-6-6-6
E|------------------------------------------------------------------------

E|-------------------------------------------------
B|-------------------------------------------------
G|9-9-9-9-9-9-9-9-9-9-9-9-9-9-9-9--13\11--9/11-8/9-
D|-------------------------------------------------
A|7-7-7-7-7-7-7-7-7-7-7-7-7-7-7-7--11\9---7/9--6/7-
E|-------------------------------------------------

  Sim eu sei, foi dificil acreditar....
E|---------------------------------------|
B|---------------------------------------|
G|9/11-11-11-9-9-9-13-13-13-9-9-9-9-9-9-9|
D|---------------------------------------| (3x)
A|7/9--9--9--7-7-7-11-11-11-7-7-7-7-7-7-7|
E|---------------------------------------|

E|-------------|
B|-------------|
G|16\14-13-11-9|
D|-------------|
A|14\12-11-9--7|
E|-------------|

 Eu tentei...
E|---------------------------------------|
B|---------------------------------------|
G|9/11-11-11-9-9-9-13-13-13-9-9-9-9-9-9-9|
D|---------------------------------------| (2x)
A|7/9--9--9--7-7-7-11-11-11-7-7-7-7-7-7-7|
E|---------------------------------------|

  Nosso sonhos   sempre   foram    mais alem
E|-----------------------------------------------------------------|
B|-----------------------------------------------------------------|
G|16-16-14-14-14-13-13-13-11-11-11-8-8-8-11-11-11-9-9-9-9-9-9-9-9-9|
D|-----------------------------------------------------------------|
A|14-14-12-12-12-11-11-11-9--9---9-6-6-6-9--9--9--7-7-7-7-7-7-7-7-7|
E|-----------------------------------------------------------------|

Interludio:
  ( E5 )
E|----------------------------------------------
B|----------------------------------------------
G|9-9---9-9---9-9---9-9---9-9---9-9---9-9--9-9--
D|----------------------------------------------
A|7-7---7-7---7-7---7-7---7-7---7-7---7-7--7-7--
E|----------------------------------------------


C#m             A                B
Não é que eu queira lembrar de coisas
  G#
ruins
C#m    A          B            G#
Elas é que cismam em me perseguir
C#                       A
Tudo que sonhei pra nós dois
      E               B
nunca deixarei pra depois

Final:
E
Sim, eu sei foi difícil
F#m
acreditar que um momento
D          A
pode fazer tudo terminar

E                        F#m
Eu tentei fui pra você melhor
                 D
do que ninguém, nossos sonhos
              A
sempre foram mais alem
Final:
  Sim eu sei, foi dificil acreditar....
E|---------------------------------------|
B|---------------------------------------|
G|9/11-11-11-9-9-9-13-13-13-9-9-9-9-9-9-9|
D|---------------------------------------| (3x)
A|7/9--9--9--7-7-7-11-11-11-7-7-7-7-7-7-7|
E|---------------------------------------|

E|-------------|
B|-------------|
G|16\14-13-11-9|
D|-------------|
A|14\12-11-9--7|
E|-------------|

 Eu tentei...
E|---------------------------------------|
B|---------------------------------------|
G|9/11-11-11-9-9-9-13-13-13-9-9-9-9-9-9-9|
D|---------------------------------------| (2x)
A|7/9--9--9--7-7-7-11-11-11-7-7-7-7-7-7-7|
E|---------------------------------------|

  Nosso sonhos   sempre   foram    mais alem
E|------------------------------------------------------------|
B|------------------------------------------------------------|
G|16-16-14-14-14-13-13-13-11-11-11-8-8-8-11-11-11---9---9--9--|
D|------------------------------------------------------------|
A|14-14-12-12-12-11-11-11-9--9---9-6-6-6-9--9--9----7---7---7-|
E|------------------------------------------------------------|
Composição de Elektra / Henrique Tardin
Colaboração e revisão:
  • Alberto Souza
1.532 exibições
    • ½ Tom
    • A
    • Bb
    • B
    • C
    • Db
    • D
    • Eb
    • E
    • F
    • F#
    • G
    • Ab
  • Adicionar à lista

    0 comentários

    Mostrar mais comentários

    Conseguiu tocar?

    1 Tocaram 0 Ainda não

    Grave um vídeo tocando Ignorar e mande pra gente!

    00:00 / 00:00
    outros vídeos desta música
    repetir qualidade Automático
    Outros vídeos desta música
    00:00 / 00:00
    Automático

    Cifra Club Pro

    Aproveite o Cifra Club com benefícios exclusivos e sem anúncios
    Cifra Club Pro
    Aproveite o Cifra Club com benefícios exclusivos e sem anúncios
    OK