Cifra Club

Aprenda

Segredos Que Guardei

Fake Number

Cifra: Principal (violão e guitarra)
Tom: G
Intro:
|--------------------|    |---------------------|   |-------------------|    |----------------|
|--------------------|    |---------------------|   |-------------------|    |----------------|
|-----------0--------|    |------------0--------|   |----------0--------|    |---------0------|
|-----4--------4-----| 2x |-------4-------4-----| 2x|-----4-------4-----| 2x |----5------5----| 2x
|--------7--------7--|    |---5----5--------5---|   |--0----0--------0--|    |-3-----3------3-|
|--0-----------------|    |---------------------|   |-------------------|    |----------------|

  Palm mute:  Em                          D                         Am               C
|--------------------|    |--------------------|    |--------------------|    |-------------|
|--------------------|    |--------------------|    |--------------------|    |-------------|
|-----------0--------|    |------------0-------|    |----------0---------|    |-0-----------|
|-----4--------4-----| 2x |------4-------4-----| 2x |-----4-------4------| 2x |-5-----------|
|--------7--------7--|    |---5----5--------5--|    |--0----0--------0---|    |-3-----------|
|--0-----------------|    |--------------------|    |--------------------|    |-------------|

Intro 2x: E5  D5  A5  C5

     E5        D5                      A5
Este lugar já não me faz lembrar dos momentos que esperei
      C5                     E5
Dos segundos que perdi se o ar que eu quero respirar
            A5        C5                             E5
Não vai me fazer bem prefiro ficar mal ser o que eu sou

Riff 1 7x: 

E|-------------10-10-10--------------|
B|-8-8-8----------------8-8-8--------|
G|-------9-9-9-----------------9-9-9-|
D|-----------------------------------|
A|-----------------------------------|
E|-----------------------------------|

Esse riff se repete junto com as frases abaixo :

              D5                        C5
Vi pessoas partirem como o dia que amanhece e escurece
     A5             E5              D5
Sem a gente perceber todo o tempo do mundo
              C5                       A5
Já não basta mais se o segundo que eu quero não chegar

E5            D  A5                 C5
Eu me desculpei Segredos que guardei
   E5              D5
Mentiras que escondi
       A5                       C5
Por querer o seu bem não te contei
          E5  D5  C5  A5
Não te contei

Solo 1 :

E|--------------------------|
B|--------------------------|
G|9(16x)----12(2x)---12(3x)-|
D|--------------------------|
A|7(16x)----9(2x)----10(3x)-|
E|--------------------------|

(Depois do solo repetimos o riff 1)

  E5                 D5                C5            A
Pessoas diferentes no mesmo lugar tentam ser alguém
                   Em   D     C     Am
Que um dia vão lembrar   vão lembrar 

Riff 2 2x:

E|---15-------------------------------------------------15-|
B|-------------------12p13-----13--12---13---12------------|
G|-----------12p14---------12--------12--------12----------|
D|-----12---------12---------------------------------------|
A|---------------------------------------------------------|
E|---------------------------------------------------------|

Em            D  Am                 C Bm
Eu me desculpei Segredos que guardei
   Em              D
Mentiras que escondi
       Am                       C  Bm
Por querer o seu bem não te contei
          Em  D  C  Am (2x)
Não te contei

Solo 2 :


E|-----------------------------------------------|
B|-----------------------------------------------|
G|----------7-------5--4--7--5--4p5--------------|
D|---5---7----(10x)-5--5--5--5--5----------------|
A|-----------------------------------------------|
E|-----------------------------------------------|

E5                D5
Eu vi pessoas partirem
                     C5
Como o dia que amanhece e escurece
       A5            E5               D5
Sem a gente perceber todo o tempo do mundo
              C5                        A5
Já não basta mais se o segundo que eu quero
           E5
Não chegar

                D5                        C5
Eu vi pessoas partirem como o dia que amanhece e escurece
     A5             E5              D5
Sem a gente perceber todo o tempo do mundo
              C5                       A5
Já não basta mais se o segundo que eu quero não chegar

E5            D5  A5                 C5
Eu me desculpei Segredos que guardei
   E5              D5
Mentiras que escondi
       A5                       C5
Por querer o seu bem não te contei
          E5  D5  C5  A5
Não te contei

    D5
Já não me faz lembrar
        A5   C5
Faz lembrar
         E5      D5
Essas pessoas já não me fazem bem
       A5            C5
Não me faz bem, não me faz bem
Composição de Elektra
Colaboração e revisão:
  • Rafael Correia
  • Derick
  • Priscila Porfiro
72.551 exibições
    • ½ Tom
    • A
    • Bb
    • B
    • C
    • Db
    • D
    • Eb
    • E
    • F
    • F#
    • G
    • Ab
  • Adicionar à lista

    0 comentários

    Mostrar mais comentários

    Conseguiu tocar?

    13 Tocaram 0 Ainda não

    Grave um vídeo tocando Segredos Que Guardei e mande pra gente!

    00:00 / 00:00
    outros vídeos desta música
    repetir qualidade Automático
    Outros vídeos desta música
    00:00 / 00:00
    Automático

    Cifra Club Pro

    Aproveite o Cifra Club com benefícios exclusivos e sem anúncios
    Cifra Club Pro
    Aproveite o Cifra Club com benefícios exclusivos e sem anúncios
    OK