Cifra Club

Oh! Chuva

Falamansa

Cifra: Principal (violão e guitarra)
tom: C#m
[Primeira Parte]

Parte 1 de 2
   C#m     G#m     C#m     G#m
E|---4--4----4--4----4--4----4--4-----------|
B|---5--5----4--4----5--5----4--4-----------|
G|---6--6----4--4----6--6----4--4-----------|
D|------------------------------------------|
A|-4---------------4------------------------|
E|---------4---------------4----------------|

Parte 2 de 2
  A        E       A        G#
E|---5--5----0--0----5--5---4-4-4-----------|
B|---5--5----0--0----5--5---4-4-4-----------|
G|---6--6----1--1----6--6---5-5-5-----------|
D|--------------------------6-6-6-----------|
A|--------------------------6-6-6-----------|
E|-5-------0-------5--------4-4-4-----------|
                            ↑ ↓ ↑

   C#m                 G#m
Você que tem medo de chuva
   C#m               G#m
Você não é nem de papel
       A               E
Muito menos feito de açúcar
   A                  G#
Ou algo parecido com mel

[Segunda Parte]

Parte 1 de 2
   C#m       G#m      C#m        G#m
E|---4----4----4----4----4----4----4----4---|
B|---5----5----4----4----5----5----4----4---|
G|---6----6----4----4----6----6----4----4---|
D|------------------------------------------|
A|-4------4-------6----4------4-------6-----|
E|------4----4------4-------4----4------4---|

Parte 2 de 2
  A          E        A           G#
E|---5----5----0----0----5----5---4-4-4-----|
B|---5----5----0----0----5----5---4-4-4-----|
G|---6----6----1----1----6----6---5-5-5-----|
D|--------------------------------6-6-6-----|
A|------7---------2---------7-----6-6-6-----|
E|-5------5--0------0--5------5---4-4-4-----|
                                  ↑ ↓ ↑

       C#m                   G#m
Experimente tomar banho de chuva
        C#m              G#m
E conhecer a energia do céu
       A                 E
A energia dessa água sagrada
         A                 G#
Nos abençoa da cabeça aos pés

[Refrão]

   C#m           A         G#
E|---4-4---4-4-4----5-5-5----4-4-4----------|
B|---5-5---5-5-5----5-5-5----4-4-4----------|
G|---6-6---6-6-6----6-6-6----5-5-5----------|
D|---6-6---6-6-6----7-7-7----6-6-6----------|
A|-4-------4-4-4----7-7-7----6-6-6----------|
E|-------4--------5--------4----------------|
     ↓ ↑   ↑ ↓ ↑    ↑ ↓ ↑    ↑ ↓ ↑ 

      C#m
Oh! Chuva
    A          G#     C#m
Eu peço que caia devagar iô
    A          G#          C#m
Só molhe esse povo de alegria
 A          G#      C#m
Para nunca mais chorar iô iô iô
 A          G#
Para nunca mais cho
      C#m
Oh! Chuva
    A          G#     C#m
Eu peço que caia devagar
    A          G#          C#m
Só molhe esse povo de alegria
 A          G#      C#m
Para nunca mais chorar iô iô iô
 A          G#
Para nunca mais cho

 C#m             A  G#
Iô iô iô, iô iô iô
 C#m                 A
Iô  iô iô iô iô iô, iô 
G# 
   Iô iô iô
C#m        A     G#
    Iô iô,   iô iô iô iô
C#m          A     G#
    Iô iô iô,  iô iô iô
C#m        A     G#
    Iô iô,   iô iô iô iô
C#m          A  G# 
    Iô iô iô

[Primeira Parte]

   C#m                 G#m
Você que tem medo de chuva
   C#m               G#m
Você não é nem de papel
       A               E
Muito menos feito de açúcar
   A                  G#
Ou algo parecido com mel

[Segunda Parte]

       C#m                   G#m
Experimente tomar banho de chuva
        C#m              G#m
E conhecer a energia do céu
       A                 E
A energia dessa água sagrada
         A                 G#
Nos abençoa da cabeça aos pés

[Refrão]

      C#m
Oh! Chuva
    A          G#     C#m
Eu peço que caia devagar iô
    A          G#          C#m
Só molhe esse povo de alegria
 A          G#      C#m
Para nunca mais chorar iô iô iô
 A          G#
Para nunca mais cho
      C#m
Oh! Chuva
    A          G#     C#m
Eu peço que caia devagar
    A          G#          C#m
Só molhe esse povo de alegria
 A          G#      C#m
Para nunca mais chorar iô iô iô
 A          G#
Para nunca mais cho

 C#m             A  G#
Iô iô iô, iô iô iô
 C#m                 A
Iô  iô iô iô iô iô, iô 
G# 
   Iô iô iô
C#m        A     G#
    Iô iô,   iô iô iô iô
C#m          A     G#
    Iô iô iô,  iô iô iô
C#m        A     G#
    Iô iô,   iô iô iô iô
C#m          A     G# 
    Iô iô iô,  iô iô iô
C#m        A     G#
    Iô iô,   iô iô iô iô
C#m        A     G#
    Iô iô iô iô iô iô iô

[Final] C#m  A  G# 
        C#m  A  G#  C#m
00:00 / 00:00
Outros vídeos desta música
Repetir
Outros vídeos desta música
Composição de Luis Carlinhos
Colaboração e revisão:
  • Thiago Almeida
46.996 exibições
  • Simplificar cifra
    • ½ Tom
    • Am
    • Bbm
    • Bm
    • Cm
    • C#m
    • Dm
    • Ebm
    • Em
    • Fm
    • F#m
    • Gm
    • G#m
  • Adicionar à lista

    0 comentários

    Ver todos os comentários

    Conseguiu tocar?

    6 Tocaram 6 Ainda não

    Grave um vídeo tocando Oh! Chuva e nos envie!

    Entre para oCifra Club PRO

    Tenha acesso a benefícios exclusivos no App e no Site

    • Chega de anúncios

    • Prioridade de compra em lançamentos

    • Mais recursos no app do Afinador

    • Atendimento Prioritário

    • Descontos nos produtos Cifra Club

    • Ajude a produzir mais conteúdo

    00:00 / 00:00
    Capítulos
    • Tocando a Música
    • Apresentação / Equipamentos
    • Acordes da Música
    • Tocando Primeira Parte
    • Ensinando Primeira Parte - Parte 1 de 2
    • Ensinando Primeira Parte - Parte 2 de 2
    • Tocando Segunda Parte
    • Ensinando Segunda Parte - Parte 1 de 2
    • Ensinando Segunda Parte - Parte 2 de 2
    • Tocando Refrão
    • Ensinando Refrão
    • Dica
    • Encerramento

    Cifra Club Pro

    Aproveite o Cifra Club com benefícios exclusivos e sem anúncios
    Cifra Club Pro
    Aproveite o Cifra Club com benefícios exclusivos e sem anúncios
    OK